Hunx And His Punx - You Dont Like Rock N Roll tab

-------------------------------------------------------------------------------
			     You Don't Like Rock 'n' Roll - Hunx and His Punx
-------------------------------------------------------------------------------
Tabbed by: DPL
Email: nizibian@gmail.com

Tuning: Standard (EADGBe)

Intro:
e|---------------------------------------------------------------------------|
B|---------------------------------------------------------------------------|
G|---------------------------------------------------------------------------|
D|-------777-7---------------------------------------------------------------|
A|-777777777-7---------------------------------------------------------------|
E|-555555555-5---------------------------------------------------------------|
   PM------>

Part A (Verse pt. 1):
e|---------------------------------------------------------------------------|
B|---------------------------------------------------------------------------|
G|---------------------------------------------------------------------------|
D|---------------------------------------------------------------------------|
A|---7-7-9-7-7-7-9-7-7-7-9-7-7-7-9-7-----------------------------------------|
E|---5-5-5-5-5-5-7-5-5-5-5-5-5-5-5-5-----------------------------------------|


Part B (Verse pt. 2):
e|---------------------------------------------------------------------------|
B|---------------------------------------------------------------------------|
G|---------------------------------------------------------------------------|
D|---7-7-777-9-9-999---------------------------------------------------------|
A|---5-5-555-7-7-777---------------------------------------------------------|
E|---------------------------------------------------------------------------|


Part C (Chorus):
e|---------------------------------------------------------------------------|
B|---------------------------------------------------------------------------|
G|---------------------------------------------------------------------------|
D|---77777777-99999999-77777777-99999999-77777777-99999999-(6)---------------|
A|---55555555-77777777-55555555-77777777-55555555-77777777-(4)---------------|
E|---------------------------------------------------------------------------|


Part D (Bridge):
e|---------------------------------------------------------------------------|
B|---------------------------------------------------------------------------|
G|---------------------------------------------------------------------------|
D|-----------77-7--------------77-7--------------77--------------------------|
A|---7-6-4-4-55-5-7-77-66-44-4-55-5-7-77-66-44-4-55-7-777--------------------|
E|---5-4-2-2------5-55-44-22-2------5-55-44-22-2----5-555--------------------|
							  
e|---------------------------------------------------------------------------|
B|---------------------------------------------------------------------------|
G|---------------------------------------------------------------------------|
D|----------------------------------8/9-99-8/9-99-8/9-99-8/9-9\\-------------|
A|---88-8/9-99-8/9-99-8/9-99-8/9-99-6/7-77-6/7-77-6/7-77-6/7-7\\-------------|
E|---66-6/7-77-6/7-77-6/7-77-6/7-77------------------------------------------|
     PM---------------------------------------------------->

Outro:
e|---------------------------------------------------------------------------|
B|---------------------------------------------------------------------------|
G|---------------------------------------------------------------------------|
D|--------------------------------------etc.---------------------------------|
A|---7-7-777-7-7-777-7-7-777-7-7-777-----------------------------------------|
E|---5-5-555-5-5-555-5-5-555-5-5-555-----------------------------------------|

Song order:

Intro

	(N.C.)
It's not that I think you're bad looking. 

	Part B
You don't like rock 'n roll. 

	Part A
It's not that I don't like your cooking. 

	Part B
You don't like rock 'n roll. 

	Part A
I think you got a nice body. 

	Part B
You don't like rock 'n roll.

	Part A 
All my friends think you're a hottie,

	Part B 
But you don't like rock 'n roll. 


	Part C
What the heck is wrong with you? 
I think you sniff too much glue. 
You don't like rock 'n roll, 
And I don't like you. 

	(N.C.)
I kinda think you must be retarded. 

	Part B
You don't like rock 'n roll. 

	Part A
I don't wanna leave you broken-hearted,

 	Part B
But you don't like rock 'n roll. 

	Part A
The music you like can get my ears buzzin'. 

	Part B
You don't like rock 'n roll. 

	Part A
I think your parents must've been cousins. 

	Part B
You don't like rock 'n roll. 


	Part C
What the hell is wrong with you? 
I think you sniff too much glue. 
You don't like rock 'n roll, 
And I don't like you. 

	Part D
You like Morrissey, you like U2. 
What the fuck is wrong with you? 
Are you deaf or just plain dumb? 
You don't like Joey, you don't like fun. 
You don't like the Ramones, so you gotta leave home. 

	(N.C.)
It hurts me boy to say goodbye, 

	Part B
But you don't like rock 'n roll.

	(N.C.) 
You know I hate to see you cry. 

	Part B
You don't like rock 'n roll. 

	Part A
The music you like totally spoils it. 

	Part B
You don't like rock 'n roll. 

	Part A
I want to shut your head into the toilet. 

	Part B
You don't like rock 'n roll. 


	Part C
What the hell is wrong with you? 
I think you sniff too much glue. 
You don't like rock 'n roll, 
And I don't like you. 

	Outro
(Hey!)


************************************

| N.C. no chord
| /    slide up
| \    slide down
| h    hammer-on
| p    pull-off
| ~    vibrato
| +    harmonic
| x    Mute note
| b    Bend
| pb   Pre-bend
| br   Bend release
| pbr  Pre-bend release
| brb  Bend release bend

************************************
Tap to rate this tab
 
# A B C D E F G H I J K L M N O P Q R S T U V W X Y Z