Guitaretab - guitar tabs
Song name
# A B C D E F G H I J K L M N O P Q R S T U V W X Y Z

Hurricane Chris - A Bay Bay tab

Intro
D|-------------|    D|------------|  D|-------------|
A|-------------|    A|------------|  A|-------------|
E|-------------|    E|-1014-10-9--|  E|-------------|
B|-1115-11-10--|X2  B|------------|  B|-1115-11-10--|
G|-------------|    G|------------|  G|-------------|
B|-------------|    B|------------|  B|-------------|

D|------------------------------------------------------------|
A|------------------------------------------------------------|
E|------------------------------------------------------------|
B|-8-10-11---------------------------------8-10-111115-11-10--|X2
G|------------------------------------------------------------|
B|------------------------------------------------------------|

Chorus
D|-------------------------------------------------------------|
A|-------------------------------------------------------------|
E|-------------------------------------------------------------|
B|-8-10-11----8-10-11----8-10-11-8-10-11----8-10-111115-11-10--|
G|-------------------------------------------------------------|
B|-------------------------------------------------------------|

D|-----------------------------------------------|
A|-----------------------------------------------|
E|-----------------------------------------------|
B|-----------------------------------------------|
G|-1-3-4----1-3-4----1-3-4-1-3-4----1-3-448-4-3--|
B|-----------------------------------------------|

Verse Part I
|-------|
|-------|
|-------|
|-------|
|-1-3-4-|
|-------|
Chorus
|--------------------------------------------------------------------|
|--------------------------------------------------------------------|
|--------------------------------------------------------------------|
|---------8-10-11----8-10-11----8-10-11-8-10-11----8-10-111115-11-10-|
|-48-4-3-------------------------------------------------------------|
|--------------------------------------------------------------------|

Verse Part II
|----------|
|----------|
|----------|
|----------|
|-48-4-3-1-|
|----------|
[ Tab from: http://www.guitaretab.com/h/hurricane-chris/102434.html ]
Verse Part III
|-----------|
|-----------|
|-1014-10-9-|
|-----------|
|-----------|
|-----------|

Chorus
|------------------------------------------------------------------------|
|------------------------------------------------------------------------|
|-1014-10-9--------------------------------------------------------------|
|------------8-10-11-----8-10-11----8-10-11-8-10-11----8-10-111115-11-10-|
|------------------------------------------------------------------------|
|------------------------------------------------------------------------|

Chorus
|------------------------------------------------|
|------------------------------------------------|
|------------------------------------------------|
|------------------------------------------------|
|-1-3-4----1-3-4----1-3-4-1-3-4----1-3-448-4-3-1-|
|------------------------------------------------|

Pre-Chorus
|------------------------------------------------|
|------------------------------------------------|
|------------------------------------------------|X2 take off the
|------------------------------------------------|   last note the
|-1-3-4----------------------------1-3-448-4-3-1-|<--second time
|------------------------------------------------|


Chorus

Verse Part I

Verse Part II

Verse Part III X4

Chorus

Lower Chorus
|----------------------------------------------|
|----------------------------------------------|
|----------------------------------------------|X2
|----------------------------------------------|
|-1-3-4----1-3-4----1-3-4-1-3-4----1-3-448-4-3-|
|----------------------------------------------|

Chorus

Verse Part II

Lower Chorus

Chorus Without Lower Part

Verse Part II

Verse Part III

Verse Part II

Pre-Chorus

Lower Chorus X2

Chorus

Lower Chorus

Chorus

There it is it took me about a minute to figure out the main chorus part so i figured 
not learn the whole song rite. Im sure its almost exactly correct. its the whole song and 
took me about 2 hours to do this tab hope you like it :)
Related for A Bay Bay tab
Advertisement will be closed in 10 seconds