Song name
# A B C D E F G H I J K L M N O P Q R S T U V W X Y Z

Hurriganes - Walkin The Dog tab

Hurriganes - Walkin' the dog
Tuning: standart
Tabbed by Eino Kolppanen

Intro
|-----------------------------------------|
|-----------------------------------------|
|-----------------------------------------|
|-0--0---3/5---3---5---0--0--3/5---3---5--|x3
|-0--0-----------5-----0--0----------5----|
|-----------------------------------------|

Verse
|-----------------------------------------|
|-----------------------------------------|
|-----------------------------------------|
|-xx-5-x-5-x-5--3\5----3---5--------------|5x
|-xx-3-x-3-x-3-----------5----------------|
|-----------------------------------------|


|-----------------------------------------|
|-----------------------------------------|
|-----------------------------------------|
|-xx-5-x-5-x-5---5-5-7--------------------|
|-xx-3-x-3-x-3---3-3-5--------------------|
|-----------------------------------------|

Chorus
|-----------------------------------------|
|-----------------------------------------|
|----------5/7----5----7------------------|
|-5-5-7--------------7----xx-5-x-5-x-5----|
|-3-3-5-------------------xx-3-x-3-x-3----|
|-----------------------------------------|

|-----------------------------------------|
|-----------------------------------------|
|-----------------------------------------|
|-3/5---3----5---xx-5-x-5-x-5-xx-7-x-7-x-7|
|---------5------xx-3-x-3-x-3-xx-5-x-5-x-5|
|-----------------------------------------|

|-----------------------------------------|
|-----------------------------------------|
|-----------------------------------------|
|-xx-5-x-5-x-5----------------5-5-7-7-----|
|-xx-3-x-3-x-3-xx-5-x-5-x-5---3-3-5-5-----|
|--------------xx-3-x-3-x-3---------------|

Solo
|-----------------------------------------|
|--8-8-8--8-8-8-8--8----------------------|
|--9-9-9-10-9-9-9-10----------------------|
|-----------------------------------------|
|-----------------------------------------|
|-----------------------------------------|

|-----------------------------------------|
|-----------8~b---------------------------|
|-10p9------------------------------------|
|-------10-------10---9~--5brb------------|
|-----------------------------------------|
|-----------------------------------------|

|-----------------------------------------|
|-------8--10b-8-10b-8-10b-8-10b-8-10b----|
|--/10------------------------------------|
|-----------------------------------------|
|-----------------------------------------|
|-----------------------------------------|

|-----------------------------------------|
|-12b-12b-13b-13b-15b-15b-17b-17b---------|
|-----------------------------------------|
|-----------------------------------------|
|-----------------------------------------|
|-----------------------------------------|

|-----15-----15-15----15----15-15---------|
|-17------17-------17----17---------------|
|---------------------------------14b-14b-|
|-----------------------------------------|
|-----------------------------------------|
|-----------------------------------------|

|-----------------------------------------|
|-----------------------------------------|
|--12b-\\\\\\\----------------------------|
|-----------------------------------------|
|-----------------------------------------|
|-----------------------------------------|
Tap to rate this tab
# A B C D E F G H I J K L M N O P Q R S T U V W X Y Z