Song name
# A B C D E F G H I J K L M N O P Q R S T U V W X Y Z

Hurriganes - Tiger tab

Help us improve GuitareTab! Take a short survey!
Hurriganes - Tiger
Tuning - standart
Tabbed by - Eino kolppanen

Intro
|-------------|-------------|------------|------------|-10-10-10-10-|
|-------------|-------------|------------|------------|--9--9--9--9-|
|-------------|-------------|------------|------------|-------------|
|-------7--9--|-------7--9--|-------7--9-|-------7--9-|-------------|
|-7--9--------|-7--9--------|-7--9-------|-7--9-------|-------------|
|-------------|-------------|------------|------------|-------------|

Chorus
|---------------|---------------|---------------|---------------|
|---------------|---------------|---------------|---------------|
|---------------|---------------|---------------|---------------|
|-9-9-11-9-9-11-|-9-9-11-9-9-11-|---------------|---------------|
|-7-7--7-7-7--7-|-7-7--7-7-7--7-|-9-9-11-9-9-11-|-9-9-11-9-9-11-|
|---------------|---------------|-7-7--7-7-7--7-|-7-7--7-7-7--7-|

|--------------------|---------------|---|----------------|
|--------------------|---------------|---|----------------|
|--------------------|---------------|---|----------------|
|-11-11-13-11-11-13--|-9-9-11-9-9-11-|---|-----------7---9|
|--9--9--9--9--9--9--|-7-7--7-7-7--7-|-9-|------7--9------|
|--------------------|---------------|-7-|-7--7-----------|

Verse
|-------------|-------------|------------|-10-10-10-10-10-10-10-10-|
|-------------|-------------|------------|--9--9--9--9--9--9--9--9-|
|-------------|-------------|------------|-------------------------|
|-------7--9--|-------7--9--|-------7--9-|-------------------------|
|-7--9--------|-7--9--------|-7--9-------|-------------------------|
|-------------|-------------|------------|-------------------------|

Chorus
|---------------|---------------|---------------|---------------|
|---------------|---------------|---------------|---------------|
|---------------|---------------|---------------|---------------|
|-9-9-11-9-9-11-|-9-9-11-9-9-11-|---------------|---------------|
|-7-7--7-7-7--7-|-7-7--7-7-7--7-|-9-9-11-9-9-11-|-9-9-11-9-9-11-|
|---------------|---------------|-7-7--7-7-7--7-|-7-7--7-7-7--7-|

|--------------------|---------------|-------|-----------|
|--------------------|---------------|-------|-----------|
|--------------------|---------------|-------|-----------|
|-11-11-13-11-11-13--|-9-9-11-9-9-11-|-------|-----------|
|--9--9--9--9--9--9--|-7-7--7-7-7--7-|-9---9-|------7--9-|
|--------------------|---------------|-7---7-|-7--7------|

Bridge
|-------------|-------------|-------------|-------------|-------------|-------------|
|-------------|-------------|-------------|-------------|-------------|-------------|
|-x-x-9-x-x-9-|-------------|-x-x-9-x-x-9-|-------------|-x-x-9-x-x-9-|-------------|
|-x-x-9-x-x-9-|-x-x-9-x-x-9-|-x-x-9-x-x-9-|-x-x-9-x-x-9-|-x-x-9-x-x-9-|-x-x-9-x-x-9-|
|-x-x-7-x-x-7-|-x-x-9-x-x-9-|-x-x-7-x-x-7-|-x-x-9-x-x-9-|-x-x-7-x-x-7-|-x-x-9-x-x-9-|
|-------------|-x-x-7-x-x-7-|-------------|-x-x-7-x-x-7-|-------------|-x-x-7-x-x-7-|

|-------|----------------|
|-------|----------------|
|-------|----------------|
|-------|-----------7---9|
|-9---9-|------7--9------|
|-7---7-|-7--7-----------|

Verse
|-------------|-------------|------------|-10-10-10-10-10-10-10-10-|
|-------------|-------------|------------|--9--9--9--9--9--9--9--9-|
|-------------|-------------|------------|-------------------------|
|-------7--9--|-------7--9--|-------7--9-|-------------------------|
|-7--9--------|-7--9--------|-7--9-------|-------------------------|
|-------------|-------------|------------|-------------------------|

Chorus
|---------------|---------------|---------------|---------------|
|---------------|---------------|---------------|---------------|
|---------------|---------------|---------------|---------------|
|-9-9-11-9-9-11-|-9-9-11-9-9-11-|---------------|---------------|
|-7-7--7-7-7--7-|-7-7--7-7-7--7-|-9-9-11-9-9-11-|-9-9-11-9-9-11-|
|---------------|---------------|-7-7--7-7-7--7-|-7-7--7-7-7--7-|

|--------------------|---------------|-------|-----------|
|--------------------|---------------|-------|-----------|
|--------------------|---------------|-------|-----------|
|-11-11-13-11-11-13--|-9-9-11-9-9-11-|-------|-----------|
|--9--9--9--9--9--9--|-7-7--7-7-7--7-|-9---9-|------7--9-|
|--------------------|---------------|-7---7-|-7--7------|

Solo
|---------------------|--------------------|---------------------|
|-5-4-5-4-5-4-5-2/4---|-5-4-5-4-5-4-5/4~---|-5-4-5-4-5-4-5-2/4---|
|-------------------4-|--------------------|-------------------4-|
|---------------------|--------------------|---------------------|
|---------------------|--------------------|---------------------|
|---------------------|--------------------|---------------------|

|-------------------|----------6h7h9---10--|-7-----7-----10--|-7-------7------10--|
|-------------------|------7h9----------9--|----9----9p7--9--|-----9-----9p7---9--|
|-------------------|-6h8h9----------------|-----------------|--------------------|
|-------------6h8h9-|----------------------|-----------------|--------------------|
|-------6h7h9-------|----------------------|-----------------|--------------------|
|-6h7h9-------------|----------------------|-----------------|--------------------|

|-7-----7-------------7-|-10--10--10--10--|-10--10--10--10--|-10-10p7---7------------|
|----9----7h9p7h9-9-9---|--9---9---9---9--|--9---9---9---9--|---------9---9-9p7---7--|
|-----------------------|-----------------|-----------------|-------------------8---8|
|-----------------------|-----------------|-----------------|------------------------|
|-----------------------|-----------------|-----------------|------------------------|
|-----------------------|-----------------|-----------------|------------------------|

|----------------10--|-----------------|------------------|--------------|
|-----9-9-9p7--------|-9--7------------|------------------|--------------|
|-8p6---------6------|------9--8--7----|------------------|--------------|
|--------------------|---------------9-|-8--6-------------|--------------|
|--------------------|-----------------|-------9--7--6----|------6--7--9-|
|--------------------|-----------------|----------------9-|-7--6---------|

Bridge
|-------------|-------------|-------------|-------------|-------------|-------------|
|-------------|-------------|-------------|-------------|-------------|-------------|
|-x-x-9-x-x-9-|-------------|-x-x-9-x-x-9-|-------------|-x-x-9-x-x-9-|-------------|
|-x-x-9-x-x-9-|-x-x-9-x-x-9-|-x-x-9-x-x-9-|-x-x-9-x-x-9-|-x-x-9-x-x-9-|-x-x-9-x-x-9-|
|-x-x-7-x-x-7-|-x-x-9-x-x-9-|-x-x-7-x-x-7-|-x-x-9-x-x-9-|-x-x-7-x-x-7-|-x-x-9-x-x-9-|
|-------------|-x-x-7-x-x-7-|-------------|-x-x-7-x-x-7-|-------------|-x-x-7-x-x-7-|

|-------|----------------|
|-------|----------------|
|-------|----------------|
|-------|-----------7---9|
|-9---9-|------7--9------|
|-7---7-|-7--7-----------|

Verse
|-------------|-------------|------------|-10-10-10-10-10-10-10-10-|
|-------------|-------------|------------|--9--9--9--9--9--9--9--9-|
|-------------|-------------|------------|-------------------------|
|-------7--9--|-------7--9--|-------7--9-|-------------------------|
|-7--9--------|-7--9--------|-7--9-------|-------------------------|
|-------------|-------------|------------|-------------------------|

Chorus
|---------------|---------------|---------------|---------------|
|---------------|---------------|---------------|---------------|
|---------------|---------------|---------------|---------------|
|-9-9-11-9-9-11-|-9-9-11-9-9-11-|---------------|---------------|
|-7-7--7-7-7--7-|-7-7--7-7-7--7-|-9-9-11-9-9-11-|-9-9-11-9-9-11-|
|---------------|---------------|-7-7--7-7-7--7-|-7-7--7-7-7--7-|

|--------------------|---------------|-------|----7-|
|--------------------|---------------|-------|----7-|
|--------------------|---------------|-------|----7-|
|-11-11-13-11-11-13--|-9-9-11-9-9-11-|-------|------|
|--9--9--9--9--9--9--|-7-7--7-7-7--7-|-9---9-|-9----|
|--------------------|---------------|-7---7-|-7----|
Related for Tiger tab