Song name
# A B C D E F G H I J K L M N O P Q R S T U V W X Y Z

Hurriganes - Tallahassee Lassie tab

Help us improve GuitareTab! Take a short survey!
-------------------------------------------------------------------------------
Hurriganes-Tallahassee Lassie
-------------------------------------------------------------------------------


Intro
e|---------------------------------------------------------------------------|
B|---------------------------------------------------------------------------|
G|---------------7-7---------------------------------------------------------|
D|---7-7---5-5---7-7---7-7-7-7-7-7-7-----------------------------------------|
A|---7-7---5-5---5-5---7-7-7-7-7-7-7-----------------------------------------|
E|---5-5---3-3---------5-5-5-5-5-5-5-----------------------------------------|

Verse 1
e|---------------------------------------------------------------------------|
B|---------------------------------------------------------------------------|
G|---7-7-7-7-7-7-7-7--6/7-7-6/7--7-7---7-7-7-7-7-7-7-7-6/7-7-6/7--7-7--------|
D|---7-7-7-7-7-7-7-7--6/7-7-6/7--7-7---7-7-7-7-7-7-7-7-6/7-7-6/7--7-7--------|
A|---5-5-5-5-5-5-5-5--4/5-5-4/5--5-5---5-5-5-5-5-5-5-5-4/5-5-4/5--5-5--------|
E|---------------------------------------------------------------------------|    

e|---------------------------------------------------------------------------|
B|---------------------------------------------------------------------------|
G|------------------------------------7-7-7-7-7-7-7-7--6/7-7-6/7--7-7--------|
D|---5-5-5-5-5-5-5-5-4/5-5-4/5--5-5---7-7-7-7-7-7-7-7--6/7-7-6/7--7-7--------|
A|---5-5-5-5-5-5-5-5-4/5-5-4/5--5-5---5-5-5-5-5-5-5-5--4/5-5-4/5--5-5--------|
E|---3-3-3-3-3-3-3-3-2/3-3-2/3--3-3------------------------------------------|

e|---------------------------------------------------------------------------|
B|---------------------------------------------------------------------------|
G|-------------------------------------7-7-7-7-7-7-7-7-7---------------------|
D|---7-7-7-7-7-7-7-7--5-5-5-5-5-5-5-5--7-7-7-7-7-7-7-7-7--7-7-7-7-7-7-7------|
A|---7-7-7-7-7-7-7-7--5-5-5-5-5-5-5-5--5-5-5-5-5-5-5-5-5--7-7-7-7-7-7-7------|
E|---5-5-5-5-5-5-5-5--3-3-3-3-3-3-3-3---------------------5-5-5-5-5-5-5------|

Bridge
e|---------------------------------------------------------------------------|
B|---------------------------------------------------------------------------|
G|--7-7--7--7-7--7--7-7--7--7-7--7--6/7--6/7--6/7--6/7-----------------------|
D|--7-7--7--7-7--7--7-7--7--7-7--7--6/7--6/7--6/7--6/7-----------------------|
A|--5-5--5--5-5--5--5-5--5--5-5--5--4/5--4/5--4/5--4/5-----------------------|
E|---------------------------------------------------------------------------|

e|---------------------------------------------------------------------------|
B|---------------------------------------------------------------------------|
G|--7-7--7--7-7--7--7-7--7--7------------------------------------------------|
D|--7-7--7--7-7--7--7-7--7--7------------------------------------------------|
A|--5-5--5--5-5--5--5-5--5--5------------------------------------------------|
E|---------------------------------------------------------------------------|

Chorus
e|---------------------------------------------------------------------------|
B|---------------------------------------------------------------------------|
G|------------------------------------7-7-7-7-7-7-7-7--6/7-7-6/7--7-7--------|
D|---5-5-5-5-5-5-5-5-4/5-5-4/5--5-5---7-7-7-7-7-7-7-7--6/7-7-6/7--7-7--------|
A|---5-5-5-5-5-5-5-5-4/5-5-4/5--5-5---5-5-5-5-5-5-5-5--4/5-5-4/5--5-5--------|
E|---3-3-3-3-3-3-3-3-2/3-3-2/3--3-3------------------------------------------|

e|---------------------------------------------------------------------------|
B|---------------------------------------------------------------------------|
G|-------------------------------------7-7-7-7-7-7-7-7-7---------------------|
D|---7-7-7-7-7-7-7-7--5-5-5-5-5-5-5-5--7-7-7-7-7-7-7-7-7--7-7-7-7-7-7-7---12-|
A|---7-7-7-7-7-7-7-7--5-5-5-5-5-5-5-5--5-5-5-5-5-5-5-5-5--7-7-7-7-7-7-7------|
E|---5-5-5-5-5-5-5-5--3-3-3-3-3-3-3-3---------------------5-5-5-5-5-5-5------|

Solo
e|-----------------------------------------------------------------10--------|
B|------------------------13-------------------------------------------------|
G|---10-------------12b14----12b14-14r12-12b13----12-10b11----9/11-----------|
D|------12----10-12----------------------------12----------12----------------|
A|---------12----------------------------------------------------------------|
E|---------------------------------------------------------------------------|

e|--------------10-13b15-13-10----10-10\-------------------------------------|
B|--12-13b15-12----------------12--------------------------------------------|
G|----------------------------------------/10-11b12-------------12----10-12--|
D|--------------------------------------------------12-12-10-12----12--------|
A|---------------------------------------------------------------------------|
E|---------------------------------------------------------------------------|

e|---10----------10----------------------------------------------------------|
B|------------------------13-------------------------------------------------|
G|------10/12b14----10h12----14-12-14----------------------------------------|
D|-----------------------------------14-12\-------12----12-------------------|
A|------------------------------------------12-15----15----12----------------|
E|---------------------------------------------------------------------------|

Bridge
e|---------------------------------------------------------------------------|
B|---------------------------------------------------------------------------|
G|--7-7--7--7-7--7--7-7--7--7-7--7--6/7--6/7--6/7--6/7-----------------------|
D|--7-7--7--7-7--7--7-7--7--7-7--7--6/7--6/7--6/7--6/7-----------------------|
A|--5-5--5--5-5--5--5-5--5--5-5--5--4/5--4/5--4/5--4/5-----------------------|
E|---------------------------------------------------------------------------|

e|---------------------------------------------------------------------------|
B|---------------------------------------------------------------------------|
G|--7-7--7--7-7--7--7-7--7--7------------------------------------------------|
D|--7-7--7--7-7--7--7-7--7--7------------------------------------------------|
A|--5-5--5--5-5--5--5-5--5--5------------------------------------------------|
E|---------------------------------------------------------------------------|

Chorus
e|---------------------------------------------------------------------------|
B|---------------------------------------------------------------------------|
G|------------------------------------7-7-7-7-7-7-7-7--6/7-7-6/7--7-7--------|
D|---5-5-5-5-5-5-5-5-4/5-5-4/5--5-5---7-7-7-7-7-7-7-7--6/7-7-6/7--7-7--------|
A|---5-5-5-5-5-5-5-5-4/5-5-4/5--5-5---5-5-5-5-5-5-5-5--4/5-5-4/5--5-5--------|
E|---3-3-3-3-3-3-3-3-2/3-3-2/3--3-3------------------------------------------|

e|---------------------------------------------------------------------------|
B|---------------------------------------------------------------------------|
G|-------------------------------------7-7-7-7-7-7-7-7-7---------------------|
D|---7-7-7-7-7-7-7-7--5-5-5-5-5-5-5-5--7-7-7-7-7-7-7-7-7--7-7-7-7-7-7-7------|
A|---7-7-7-7-7-7-7-7--5-5-5-5-5-5-5-5--5-5-5-5-5-5-5-5-5--7-7-7-7-7-7-7------|
E|---5-5-5-5-5-5-5-5--3-3-3-3-3-3-3-3---------------------5-5-5-5-5-5-5------|

Solo (20x)
e|---{/10}-------------------------------------------------------------------|
B|---{/10}-------------------------------------------------------------------|
G|---------12-10-12-10-------------10----12-10----10-12b14-12b14--10-12-10---|
D|---------------------12----10h12----12-------12----------------------------|
A|------------------------12-------------------------------------------------|
E|---------------------------------------------------------------------------|
                               .25
e|---------------------------------------------------------------------------|
B|---------------------------------------------------------------------------|
G|-----10-10----10-10----------10b----12-10/12-12-10/12-12-10/12-12-10/12-12-|
D|--12-------12-------12-10-12-----12----------------------------------------|
A|---------------------------------------------------------------------------|
E|---------------------------------------------------------------------------|

e|--------------------------------10-----------------------------------------|
B|-----------------------------------13b15-----------------------------------|
G|--10/12-12-10-------------10-12--------------------------------------------|
D|--------------12----10-12--------------------------------------------------|
A|-----------------12--------------------------------------------------------|
E|---------------------------------------------------------------------------|

Verse
e|---------------------------------------------------------------------------|
B|---------------------------------------------------------------------------|
G|---7-7-7-7-7-7-7-7--6/7-7-6/7--7-7---7-7-7-7-7-7-7-7-7-7-7-7-7--7-7--------|
D|---7-7-7-7-7-7-7-7--6/7-7-6/7--7-7---7-7-7-7-7-7-7-7-7-7-7-7-7--7-7--------|
A|---5-5-5-5-5-5-5-5--4/5-5-4/5--5-5---5-5-5-5-5-5-5-5-5-5-5-5-5--5-5--------|
E|---------------------------------------------------------------------------|    

e|---------------------------------------------------------------------------|
B|---------------------------------------------------------------------------|
G|------------------------------------7-7-7-7-7-7-7-7--7-7-7-7-7--7-7--------|
D|---5-5-5-5-5-5-5-5-5-5-5-5-5--5-5---7-7-7-7-7-7-7-7--7-7-7-7-7--7-7--------|
A|---5-5-5-5-5-5-5-5-5-5-5-5-5--5-5---5-5-5-5-5-5-5-5--5-5-5-5-5--5-5--------|
E|---3-3-3-3-3-3-3-3-3-3-3-3-3--3-3------------------------------------------|

e|---------------------------------------------------------------------------|
B|---------------------------------------------------------------------------|
G|-------------------------------------12b14-12-10-12-10----------10---------|
D|---7-7-7-7-7-7-7-7--5-5-5-5-5-5-5-5-------------------12---10-12---12-10-12|
A|---7-7-7-7-7-7-7-7--5-5-5-5-5-5-5-5---------------------12-----------------|
E|---5-5-5-5-5-5-5-5--3-3-3-3-3-3-3-3----------------------------------------|

Gtr.1
e|---------------------------------|
B|---------------------------------|
G|---------------------------------|
D|---------------------------------|
A|------------------8-10-8h10p8----|
E|------------------------------10-|
Gtr.2
e|-------10------------------------|
B|----------13-10----10------------|
G|-12b14----------12----13-12-10---|
D|-------------------------------12|
A|---------------------------------|
E|---------------------------------|

Related for Tallahassee Lassie tab