Song name
# A B C D E F G H I J K L M N O P Q R S T U V W X Y Z

Hurriganes - Tallahassee Lassie Live tab

-------------------------------------------------------------------------------
Hurriganes-Tallahassee Lassie 
Live at Tavastia 1974
-------------------------------------------------------------------------------


Intro
e|---------------------------------------------------------------------------|
B|---------------------------------------------------------------------------|
G|---------------7-7---------------------------------------------------------|
D|---7-7---5-5---7-7---7-7-7-7-7-7-7-----------------------------------------|
A|---7-7---5-5---5-5---7-7-7-7-7-7-7-----------------------------------------|
E|---5-5---3-3---------5-5-5-5-5-5-5-----------------------------------------|

Verse 1
e|---------------------------------------------------------------------------|
B|---------------------------------------------------------------------------|
G|---7-7-7-7-7-7-7-7--6/7-7-6/7--7-7---7-7-7-7-7-7-7-7-6/7-7-6/7--7-7--------|
D|---7-7-7-7-7-7-7-7--6/7-7-6/7--7-7---7-7-7-7-7-7-7-7-6/7-7-6/7--7-7--------|
A|---5-5-5-5-5-5-5-5--4/5-5-4/5--5-5---5-5-5-5-5-5-5-5-4/5-5-4/5--5-5--------|
E|---------------------------------------------------------------------------|    

e|---------------------------------------------------------------------------|
B|---------------------------------------------------------------------------|
G|------------------------------------7-7-7-7-7-7-7-7--6/7-7-6/7--7-7--------|
D|---5-5-5-5-5-5-5-5-4/5-5-4/5--5-5---7-7-7-7-7-7-7-7--6/7-7-6/7--7-7--------|
A|---5-5-5-5-5-5-5-5-4/5-5-4/5--5-5---5-5-5-5-5-5-5-5--4/5-5-4/5--5-5--------|
E|---3-3-3-3-3-3-3-3-2/3-3-2/3--3-3------------------------------------------|

e|---------------------------------------------------------------------------|
B|---------------------------------------------------------------------------|
G|-------------------------------------7-7-7-7-7-7-7-7-7---------------------|
D|---7-7-7-7-7-7-7-7--5-5-5-5-5-5-5-5--7-7-7-7-7-7-7-7-7--7-7-7-7-7-7-7------|
A|---7-7-7-7-7-7-7-7--5-5-5-5-5-5-5-5--5-5-5-5-5-5-5-5-5--7-7-7-7-7-7-7------|
E|---5-5-5-5-5-5-5-5--3-3-3-3-3-3-3-3---------------------5-5-5-5-5-5-5------|

Bridge
e|---------------------------------------------------------------------------|
B|---------------------------------------------------------------------------|
G|--7-7--7--7-7--7--7-7--7--7-7--7--6/7--6/7--6/7--6/7-----------------------|
D|--7-7--7--7-7--7--7-7--7--7-7--7--6/7--6/7--6/7--6/7-----------------------|
A|--5-5--5--5-5--5--5-5--5--5-5--5--4/5--4/5--4/5--4/5-----------------------|
E|---------------------------------------------------------------------------|

e|---------------------------------------------------------------------------|
B|---------------------------------------------------------------------------|
G|--7-7--7--7-7--7--7-7--7--7------------------------------------------------|
D|--7-7--7--7-7--7--7-7--7--7------------------------------------------------|
A|--5-5--5--5-5--5--5-5--5--5------------------------------------------------|
E|---------------------------------------------------------------------------|

Chorus
e|---------------------------------------------------------------------------|
B|---------------------------------------------------------------------------|
G|------------------------------------7-7-7-7-7-7-7-7--6/7-7-6/7--7-7--------|
D|---5-5-5-5-5-5-5-5-4/5-5-4/5--5-5---7-7-7-7-7-7-7-7--6/7-7-6/7--7-7--------|
A|---5-5-5-5-5-5-5-5-4/5-5-4/5--5-5---5-5-5-5-5-5-5-5--4/5-5-4/5--5-5--------|
E|---3-3-3-3-3-3-3-3-2/3-3-2/3--3-3------------------------------------------|

e|---------------------------------------------------------------------------|
B|---------------------------------------------------------------------------|
G|-------------------------------------7-7-7-7-7-7-7-7-7---------------------|
D|---7-7-7-7-7-7-7-7--5-5-5-5-5-5-5-5--7-7-7-7-7-7-7-7-7--7-7-7-7-7-7-7---12-|
A|---7-7-7-7-7-7-7-7--5-5-5-5-5-5-5-5--5-5-5-5-5-5-5-5-5--7-7-7-7-7-7-7------|
E|---5-5-5-5-5-5-5-5--3-3-3-3-3-3-3-3---------------------5-5-5-5-5-5-5------|

Solo
e|------------------------------------10-------10----------------------------|
B|---------------------------------------13b15----13-10-------------10-------|
G|------7-7---7-----9b11r9-7---7-9/11-------------------13-12-10-12----------|
D|--7/9-----9---9-7----------9-----------------------------------------------|
A|---------------------------------------------------------------------------|
E|---------------------------------------------------------------------------|

e|---------------------------------------------------------------------------|
B|---------------------------------------------------------------------------|
G|--10b11----12p10----10----12-10b11----12-10b11----12-10b11----12-10b11-----|
D|--------12-------12----12----------12----------12----------12----------12--|
A|---------------------------------------------------------------------------|
E|---------------------------------------------------------------------------|

e|-------------------------------------------10----------10------------------|
B|----------------------------------------------13-13b15----13-10------------|
G|-12-10b11----------10----12p10----10-12b14----------------------13-12-10---|
D|----------12-10h12----12-------12------------------------------------------|
A|---------------------------------------------------------------------------|
E|---------------------------------------------------------------------------|

e|---------------------------------------------------------------------------|
B|---------------------------------------------------------------------------|
G|--12-10-------------10----12p10----10--------------------------------------|
D|--------12----10-12----12-------12-----------------------------------------|
A|-----------12--------------------------12----------------------------------|
E|---------------------------------------------------------------------------|

Bridge
e|---------------------------------------------------------------------------|
B|---------------------------------------------------------------------------|
G|--7-7--7--7-7--7--7-7--7--7-7--7--6/7--6/7--6/7--6/7-----------------------|
D|--7-7--7--7-7--7--7-7--7--7-7--7--6/7--6/7--6/7--6/7-----------------------|
A|--5-5--5--5-5--5--5-5--5--5-5--5--4/5--4/5--4/5--4/5-----------------------|
E|---------------------------------------------------------------------------|

e|---------------------------------------------------------------------------|
B|---------------------------------------------------------------------------|
G|--7-7--7--7-7--7--7-7--7--7------------------------------------------------|
D|--7-7--7--7-7--7--7-7--7--7------------------------------------------------|
A|--5-5--5--5-5--5--5-5--5--5------------------------------------------------|
E|---------------------------------------------------------------------------|

Chorus
e|---------------------------------------------------------------------------|
B|---------------------------------------------------------------------------|
G|------------------------------------7-7-7-7-7-7-7-7--6/7-7-6/7--7-7--------|
D|---5-5-5-5-5-5-5-5-4/5-5-4/5--5-5---7-7-7-7-7-7-7-7--6/7-7-6/7--7-7--------|
A|---5-5-5-5-5-5-5-5-4/5-5-4/5--5-5---5-5-5-5-5-5-5-5--4/5-5-4/5--5-5--------|
E|---3-3-3-3-3-3-3-3-2/3-3-2/3--3-3------------------------------------------|

e|---------------------------------------------------------------------------|
B|---------------------------------------------------------------------------|
G|-------------------------------------7-7-7-7-7-7-7-7-7---------------------|
D|---7-7-7-7-7-7-7-7--5-5-5-5-5-5-5-5--7-7-7-7-7-7-7-7-7--7-7-7-7-7-7-7------|
A|---7-7-7-7-7-7-7-7--5-5-5-5-5-5-5-5--5-5-5-5-5-5-5-5-5--7-7-7-7-7-7-7------|
E|---5-5-5-5-5-5-5-5--3-3-3-3-3-3-3-3---------------------5-5-5-5-5-5-5------|

Solo 
e|--/10-10-10-/10-10-10-/10-10-10-/10-10-10-/10-10-10-/10-10-10--------------|
B|---------------------------------------------------------------------------|
G|---------------------------------------------------------------------------|
D|---------------------------------------------------------------------------|
A|---------------------------------------------------------------------------|
E|---------------------------------------------------------------------------|

e|---------------------------------------------------------------------------|
B|--------------------------------------/15-15-13----18b20-18-15-15----15----|
G|--13-12-10-12-10--10b11------------10-----------14----------------16-------|
D|----------------12-----12----10h12-----------------------------------------|
A|--------------------------12-----------------------------------------------|
E|---------------------------------------------------------------------------|

e|-----------------------------------------------------17b19-17-15-17p15-----|
B|--------15-15----15----15-18b20-18-15h18p15----15-15-------------------18--|
G|--14/16-------16----16----------------------17-----------------------------|
D|---------------------------------------------------------------------------|
A|---------------------------------------------------------------------------|
E|---------------------------------------------------------------------------|

e|---------------------------------------------------------------------------|
B|---15-------10-------------------------------------------------------------|
G|---------------10-----------10----12p10----10------------------------------|
D|------10/12-------12--10/12----12-------12---------------------------------|
A|----------------------------------------------12--12-----------------------|
E|---------------------------------------------------------------------------|

e|---------------------------------------------------------------------------|
B|---------------------------------------------------------------------------|
G|---7-7-7-7-7-7-7-7--6/7-7-6/7--7-7---7-7-7-7-7-7-7-7-6/7-7-6/7--7-7--------|
D|---7-7-7-7-7-7-7-7--6/7-7-6/7--7-7---7-7-7-7-7-7-7-7-6/7-7-6/7--7-7--------|
A|---5-5-5-5-5-5-5-5--4/5-5-4/5--5-5---5-5-5-5-5-5-5-5-4/5-5-4/5--5-5--------|
E|---------------------------------------------------------------------------|    

e|---------------------------------------------------------------------------|
B|---------------------------------------------------------------------------|
G|------------------------------------7-7-7-7-7-7-7-7--6/7-7-6/7--7-7--------|
D|---5-5-5-5-5-5-5-5-4/5-5-4/5--5-5---7-7-7-7-7-7-7-7--6/7-7-6/7--7-7--------|
A|---5-5-5-5-5-5-5-5-4/5-5-4/5--5-5---5-5-5-5-5-5-5-5--4/5-5-4/5--5-5--------|
E|---3-3-3-3-3-3-3-3-2/3-3-2/3--3-3------------------------------------------|

e|---------------------------------------------------------------------------|
B|---------------------------------------------------------------------------|
G|-------------------------------------7-7-7-7-7-7-7-7-7---------------------|
D|---7-7-7-7-7-7-7-7--5-5-5-5-5-5-5-5--7-7-7-7-7-7-7-7-7--7-7-7-7-7-7-7------|
A|---7-7-7-7-7-7-7-7--5-5-5-5-5-5-5-5--5-5-5-5-5-5-5-5-5--7-7-7-7-7-7-7------|
E|---5-5-5-5-5-5-5-5--3-3-3-3-3-3-3-3---------------------5-5-5-5-5-5-5------|


Verse
e|---------------------------------------------------------------------------|
B|---------------------------------------------------------------------------|
G|---7-7-7-7-7-7-7-7--6/7-7-6/7--7-7---7-7-7-7-7-7-7-7-7-7-7-7-7--7-7--------|
D|---7-7-7-7-7-7-7-7--6/7-7-6/7--7-7---7-7-7-7-7-7-7-7-7-7-7-7-7--7-7--------|
A|---5-5-5-5-5-5-5-5--4/5-5-4/5--5-5---5-5-5-5-5-5-5-5-5-5-5-5-5--5-5--------|
E|---------------------------------------------------------------------------|    

e|---------------------------------------------------------------------------|
B|---------------------------------------------------------------------------|
G|------------------------------------7-7-7-7-7-7-7-7--7-7-7-7-7--7-7--------|
D|---5-5-5-5-5-5-5-5-5-5-5-5-5--5-5---7-7-7-7-7-7-7-7--7-7-7-7-7--7-7--------|
A|---5-5-5-5-5-5-5-5-5-5-5-5-5--5-5---5-5-5-5-5-5-5-5--5-5-5-5-5--5-5--------|
E|---3-3-3-3-3-3-3-3-3-3-3-3-3--3-3------------------------------------------|

e|-------------------------------------------------------------------------------||
B|-------------------------------------------------------------------------------||
G|-------------------------------------12b14-12-10-12-10--------------10---------||
D|---7-7-7-7-7-7-7-7--5-5-5-5-5-5-5-5-------------------12-10---10-12---12-10-12-||
A|---7-7-7-7-7-7-7-7--5-5-5-5-5-5-5-5-------------------------12-----------------||
E|---5-5-5-5-5-5-5-5--3-3-3-3-3-3-3-3--------------------------------------------||

Tap to rate this tab
 
# A B C D E F G H I J K L M N O P Q R S T U V W X Y Z