Guitaretab - guitar tabs
Song name
# A B C D E F G H I J K L M N O P Q R S T U V W X Y Z

Hurriganes - The Phone Rang Live tab

Hurriganes-The Phone Rang
(Live in Stockholm 1977)

e|---------------------------------------------------------------------------|
B|---------------------------------------------------------------------------|
G|-5-5--5-5--5-5--5-5--5--------5-5-7-5-5-5-7-5-5-5-7-5-5-7-5----------------|
D|-5-5--5-5--5-5--5-5--5----0-2-3-3-3-3-3-3-3-3-3-3-3-3-3-3-3----------------|
A|-3-3--3-3--3-3--3-3--3--3--------------------------------------------------|
E|---------------------------------------------------------------------------|

e|---------------------------------------------------------------------------|
B|---------------------------------------------------------------------------|
G|-------------------------------5-5-7-5-5-5-7-5-5-5-7-5-5-5-7-5-------------|
D|-5-5-7-5-5-5-7-5-5-5-7-5-5-7-5-3-3-3-3-3-3-3-3-3-3-3-3-3-3-3-3-------------|
A|-3-3-3-3-3-3-3-3-3-3-3-3-3-3-3---------------------------------------------|
E|---------------------------------------------------------------------------|

e|---------------------------------------------------------------------------|
B|---------------------------------------------------------------------------|
G|------------------7-7-7-7-7-7-7-7------------------------------------------|
D|--7-7-7-7-7-7-7-7-5-5-5-5-5-5-5-5------------------------------------------|
A|--5-5-5-5-5-5-5-5----------------------------------------------------------|
E|---------------------------------------------------------------------------|


e|---------------------------------------------------------------------------|
B|---------------------------------------------------------------------------|
G|-5-5--5-5--5-5--5-5--5--------5-5-7-5-5-5-7-5-5-5-7-5-5-7-5----------------|
D|-5-5--5-5--5-5--5-5--5----0-2-3-3-3-3-3-3-3-3-3-3-3-3-3-3-3----------------|
A|-3-3--3-3--3-3--3-3--3--3--------------------------------------------------|
E|---------------------------------------------------------------------------|

B|---------------------------------------------------------------------------|
G|-------------------------------5-5-7-5-5-5-7-5-5-5-7-5-5-5-7-5-------------|
D|-5-5-7-5-5-5-7-5-5-5-7-5-5-7-5-3-3-3-3-3-3-3-3-3-3-3-3-3-3-3-3-------------|
A|-3-3-3-3-3-3-3-3-3-3-3-3-3-3-3---------------------------------------------|
E|---------------------------------------------------------------------------|

e|---------------------------------------------------------------------------|
B|---------------------------------------------------------------------------|
G|------------------7-7-7-7-7-7-7-7------------------------------------------|
D|--7-7-7-7-7-7-7-7-5-5-5-5-5-5-5-5------------------------------------------|
A|--5-5-5-5-5-5-5-5----------------------------------------------------------|
E|---------------------------------------------------------------------------|

Solo
e|------------------------------------------------------------8-8-8----------|
B|---------------------------------8--------------------------8-8-8-11-8-11-8|
G|--5-5-5-----5-------5-7b-5-5-7b9---9r7-5-7p5---5---5-5--7b9----------------|
D|--5-5-5-7p5-5-7p5-7------3-3-----------------7---7-5-5---------------------|
A|--3-3--------------------3-3-----------------------3-3---------------------|
E|---------------------------------------------------------------------------|
[ Tab from: http://www.guitaretab.com/h/hurriganes/180436.html ]
e|--8-8-----------8-8----8----8-8-----------------------8--------------------|
B|--8-8-8-11-8-11-----11---11-----8-10p8----8-----------8--10-8-8------------|
G|---------------------------------------10---8-10p8-------10-8-8------------|
D|---------------------------------------------------10-----------10-8-10----|
A|---------------------------------------------------------------------------|
E|---------------------------------------------------------------------------|

e|---------------------------------------------------------------------------|
B|--8----10-8-8---------11-11-11-11-11-11-11-11------------------------------|
G|--8----10-8-8-10-8-10-12-12-12-12-12-12-12-12-8-10p8----8-8-10-8-----------|
D|----10-----------------------------------------------10--------------------|
A|---------------------------------------------------------------------------|
E|---------------------------------------------------------------------------|

e|---------------------------------------------------------------------------|
B|-13-13-13-13-13-13-13-13-13-13-13-13-16-16-16-16-16-16-16-16-16-16-16-16---|
G|-14-14-14-14-14-14-14-14-14-14-14-14-17-17-17-17-17-17-17-17-17-17-17-17---|
D|---------------------------------------------------------------------------|
A|---------------------------------------------------------------------------|
E|---------------------------------------------------------------------------|

e|---------------------------------------------------------------------------|
B|--------15-----------------------------------------------------------------|
G|--14b16----16r14-12-14p12----12-12-----------------------------------------|
D|--------------------------14-------14--------------------------------------|
A|---------------------------------------------------------------------------|
E|---------------------------------------------------------------------------|

e|---------------------------------------------------------------------------|
B|---------------------------------------------------------------------------|
G|-5-5--5-5--5-5--5-5--5--------5-5-7-5-5-5-7-5-5-5-7-5-5-7-5----------------|
D|-5-5--5-5--5-5--5-5--5----0-2-3-3-3-3-3-3-3-3-3-3-3-3-3-3-3----------------|
A|-3-3--3-3--3-3--3-3--3--3--------------------------------------------------|
E|---------------------------------------------------------------------------|

e|---------------------------------------------------------------------------|
B|---------------------------------------------------------------------------|
G|-------------------------------5-5-7-5-5-5-7-5-5-5-7-5-5-5-7-5-------------|
D|-5-5-7-5-5-5-7-5-5-5-7-5-5-7-5-3-3-3-3-3-3-3-3-3-3-3-3-3-3-3-3-------------|
A|-3-3-3-3-3-3-3-3-3-3-3-3-3-3-3---------------------------------------------|
E|---------------------------------------------------------------------------|

e|---------------------------------------------------------------------------|
B|---------------------------------------------------------------------------|
G|------------------7-7-7-7-7-7-7-7-5-5-7-5-5-5-7-5-5-7-5-5-5-7-5------------|
D|--7-7-7-7-7-7-7-7-5-5-5-5-5-5-5-5-3-3-3-3-3-3-3-3-3-3-3-3-3-3-3------------|
A|--5-5-5-5-5-5-5-5----------------------------------------------------------|
E|---------------------------------------------------------------------------|

e|---------------------------------------------------------------------------|
B|---------------------------------------------------------------------------|
G|-7-7-9-7-7-7-9-7-7-7--3-4-5-5-5--------------------------------------------|
D|-5-5-5-5-5-5-5-5-5-5--3-4-5-5-5--------------------------------------------|
A|----------------------1-2-3-3-3--------------------------------------------|
E|---------------------------------------------------------------------------|


Related for The Phone Rang Live tab
Advertisement will be closed in 10 seconds