Song name
# A B C D E F G H I J K L M N O P Q R S T U V W X Y Z

Hurriganes - Ridin Ridin tab

-------------------------------------------------------------------------------
Hurriganes-Ridin' Ridin'
Hot Wheels (1976)
-------------------------------------------------------------------------------

Intro
e|---------------------------------------------------------------------------|
B|-----------7--7--7p5---5----------5--7-5----------7-7--7p5---5-------------|
G|---7b9-7b9-7--7--7p5---5----------5--7-5--7b9-7b9-7-7--7p5---5-------------|
D|---------------------7---7-5-7--7--------------------------7---7-5-7-------|
A|---------------------------------------------------------------------------|
E|---------------------------------------------------------------------------|

e|---------------------------------------------------------------------------|
B|----5--7--5--7-7--7-7p5---5-------5--7-7--7-7p5---5-------5----------------|
G|----5--7--5--7-7--7-7p5---5-------5--7-7--7-7p5---5-------5----------------|
D|--7---------------------7---7-5-7---------------7---7-5-7------------------|
A|---------------------------------------------------------------------------|
E|---------------------------------------------------------------------------|

e|---------------------------------------------------------------------------|
B|----------7--------------7-------------12----------------------------------|
G|----------7--9--7--------7--9--7-------12--14-12---------------------------|
D|---/9--9-----------/9-9-----------/14-------------14-14-14-14-14-14--------|
A|--------------------------------------------------14-14-14-14-14-14--------|
E|---------------------------------------------------------------------------|

Verse
e|---------------------------------------------------------------------------|
B|---------------------------------------------------------------------------|
G|---------------------------------------------------------------------------|
D|---------------------------------------------------------------------------|
A|--7-7-7-7-7-7-7-7-7-7-7-7-7-7-7-7-7-7-7-7-7-7-7-7-7-7-7-7-7-7-7-7----------|
E|--5-5-5-5-5-5-5-5-5-5-5-5-5-5-5-5-5-5-5-5-5-5-5-5-5-5-5-5-5-5-5-5----------|

e|---------------------------------------------------------------------------|
B|---------------------------------------------------------------------------|
G|---------------------------------------------------------------------------|
D|---------------------------------------------------------------------------|
A|--7-7-7-7-7-7-7-7-7-7-7-7-7-7-7-7-7-7-7-7-7-7-7-7-7-7-7-7-7-7-7-7----------|
E|--5-5-5-5-5-5-5-5-5-5-5-5-5-5-5-5-5-5-5-5-5-5-5-5-5-5-5-5-5-5-5-5----------|


e|---------------------------------------------------------------------------|
B|---------------------------------------------------------------------------|
G|---------------------------------------------------------------------------|
D|--7-7-7-7-7-7-7-7-7-7-7-7-7-7-7-7-7-7-7-7-7-7-7-7-7-7-7-7-7-7-7-7----------|
A|--5-5-5-5-5-5-5-5-5-5-5-5-5-5-5-5-5-5-5-5-5-5-5-5-5-5-5-5-5-5-5-5----------|
E|---------------------------------------------------------------------------|

Chorus
e|---------------------------------------------------------------------------|
B|---------------------------------------------------------------------------|
G|---------------------------------------------------------------------------|
D|-----------------------------------9-9-9-9-9-9-9-9-9-9-9-9-9-9-9-----------|
A|--9-9-9-9-9-9-9-9-9-9-9-9-9-9-9-9--7-7-7-7-7-7-7-7-7-7-7-7-7-7-7-----------|
E|--7-7-7-7-7-7-7-7-7-7-7-7-7-7-7-7------------------------------------------|

Verse
e|---------------------------------------------------------------------------|
B|---------------------------------------------------------------------------|
G|---------------------------------------------------------------------------|
D|---------------------------------------------------------------------------|
A|--7-7-7-7-7-7-7-7-7-7-7-7-7-7-7-7-7-7-7-7-7-7-7-7-7-7-7-7-7-7-7-7----------|
E|--5-5-5-5-5-5-5-5-5-5-5-5-5-5-5-5-5-5-5-5-5-5-5-5-5-5-5-5-5-5-5-5----------|

e|---------------------------------------------------------------------------|
B|---------------------------------------------------------------------------|
G|---------------------------------------------------------------------------|
D|---------------------------------------------------------------------------|
A|--7-7-7-7-7-7-7-7-7-7-7-7-7-7-7-7-7-7-7-7-7-7-7-7-7-7-7-7-7-7-7-7----------|
E|--5-5-5-5-5-5-5-5-5-5-5-5-5-5-5-5-5-5-5-5-5-5-5-5-5-5-5-5-5-5-5-5----------|


e|---------------------------------------------------------------------------|
B|---------------------------------------------------------------------------|
G|---------------------------------------------------------------------------|
D|--7-7-7-7-7-7-7-7-7-7-7-7-7-7-7-7-7-7-7-7-7-7-7-7-7-7-7-7-7-7-7-7----------|
A|--5-5-5-5-5-5-5-5-5-5-5-5-5-5-5-5-5-5-5-5-5-5-5-5-5-5-5-5-5-5-5-5----------|
E|---------------------------------------------------------------------------|

Chorus
e|---------------------------------------------------------------------------|
B|---------------------------------------------------------------------------|
G|---------------------------------------------------------------------------|
D|-----------------------------------9-9-9-9-9-9-9-9-9-9-9-9-9-9-8-----------|
A|--9-9-9-9-9-9-9-9-9-9-9-9-9-9-9-9--7-7-7-7-7-7-7-7-7-7-7-7-7-7-6-----------|
E|--7-7-7-7-7-7-7-7-7-7-7-7-7-7-7-7------------------------------------------|

e|---------------------------------------------------------------------------|
B|---------------------------------------------------------------------------|
G|---------------------------------------------------------------------------|
D|--7-7-9-7-7-7-9-7-7-7-9-7-7-7-9-7------------------------------------------|
A|--5-5-5-5-5-5-5-5-5-5-5-5-5-5-5-5--7-7-9-7-7-7-9-7-7-7-9-7-7-7-9-7---------|
E|-----------------------------------5-5-5-5-5-5-5-5-5-5-5-5-5-5-5-5---------|

e|---------------------------------------------------------------------------|
B|---------------------------------------------------------------------------|
G|---------------------------------------------------------------------------|
D|--7-7-9-7-7-7-9-7-7-7-9-7-7-7-9-7--9-9-9-9-9-9-9-9-9-9-9-9-9-9-9-9---------|
A|--5-5-5-5-5-5-5-5-5-5-5-5-5-5-5-5--7-7-7-7-7-7-7-7-7-7-7-7-7-7-7-7---------|
E|---------------------------------------------------------------------------|

Solo
e|---------------------------------------------------------------------------|
B|--6b8-6b8-5-5-5-5-5-5---------------8b10-8b10-5-5-5-5-5-5------------------|
G|----------5-5-5-5-5-5-7-5-7-7-5-7-5-----------5-5-5-5-5-5-7-5-7p5h7-7-5-7--|
D|---------------------------------------------------------------------------|
A|---------------------------------------------------------------------------|
E|---------------------------------------------------------------------------|

e|------10-----------10------------------------------------------------------|
B|------10-----------10----------12b13-13-13-13-13-13-13-13r12-10----10------|
G|---------12-10--------12-10----12b14-14-14-14-14-14-14-14r12-10-12-10------|
D|--/12-----------12----------------------------------------------------12\--|
A|---------------------------------------------------------------------------|
E|---------------------------------------------------------------------------|

e|-------------------------------12------------------------------------------|
B|-----7-10-7--9p7---------------12-14-12-15-15-15-15-15-15-15---------------|
G|-----7-------9p7----9-7-9-7-------14-12-16-16-16-16-16-16-16---------------|
D|--/9-------------9----------14---------------------------------------------|
A|---------------------------------------------------------------------------|
E|---------------------------------------------------------------------------|

Chorus
e|---------------------------------------------------------------------------|
B|---------------------------------------------------------------------------|
G|---------------------------------------------------------------------------|
D|--7-7-9-7-7-7-9-7-7-7-9-7-7-7-9-7------------------------------------------|
A|--5-5-5-5-5-5-5-5-5-5-5-5-5-5-5-5--7-7-9-7-7-7-9-7-7-7-9-7-7-7-9-7---------|
E|-----------------------------------5-5-5-5-5-5-5-5-5-5-5-5-5-5-5-5---------|

e|---------------------------------------------------------------------------|
B|---------------------------------------------------------------------------|
G|---------------------------------------------------------------------------|
D|--7-7-9-7-7-7-9-7-7-7-9-7-7-7-9-7--9-9-9-9-9-9-9-9-9-9-9-9-9-9-9-9---------|
A|--5-5-5-5-5-5-5-5-5-5-5-5-5-5-5-5--7-7-7-7-7-7-7-7-7-7-7-7-7-7-7-7---------|
E|---------------------------------------------------------------------------|

e|---------------------------------------------------------------------------|
B|---------------------------------------------------------------------------|
G|---------------------------------------------------------------------------|
D|---------------------------------------------------------------------------|
A|--7-7-7-7-7-7-7-7-7-7-7-7-7-7-7-7-7-7-7-7-7-7-7-7-7-7-7-7-7-7-7-7----------|
E|--5-5-5-5-5-5-5-5-5-5-5-5-5-5-5-5-5-5-5-5-5-5-5-5-5-5-5-5-5-5-5-5----------|

Verse
e|---------------------------------------------------------------------------|
B|---------------------------------------------------------------------------|
G|---------------------------------------------------------------------------|
D|---------------------------------------------------------------------------|
A|--7-7-7-7-7-7-7-7-7-7-7-7-7-7-7-7-7-7-7-7-7-7-7-7-7-7-7-7-7-7-7-7----------|
E|--5-5-5-5-5-5-5-5-5-5-5-5-5-5-5-5-5-5-5-5-5-5-5-5-5-5-5-5-5-5-5-5----------|

e|---------------------------------------------------------------------------|
B|---------------------------------------------------------------------------|
G|---------------------------------------------------------------------------|
D|---------------------------------------------------------------------------|
A|--7-7-7-7-7-7-7-7-7-7-7-7-7-7-7-7-7-7-7-7-7-7-7-7-7-7-7-7-7-7-7-7----------|
E|--5-5-5-5-5-5-5-5-5-5-5-5-5-5-5-5-5-5-5-5-5-5-5-5-5-5-5-5-5-5-5-5----------|


e|---------------------------------------------------------------------------|
B|---------------------------------------------------------------------------|
G|---------------------------------------------------------------------------|
D|--7-7-7-7-7-7-7-7-7-7-7-7-7-7-7-7-7-7-7-7-7-7-7-7-7-7-7-7-7-7-7-7----------|
A|--5-5-5-5-5-5-5-5-5-5-5-5-5-5-5-5-5-5-5-5-5-5-5-5-5-5-5-5-5-5-5-5----------|
E|---------------------------------------------------------------------------|

Chorus
e|---------------------------------------------------------------------------|
B|---------------------------------------------------------------------------|
G|---------------------------------------------------------------------------|
D|-----------------------------------9-9-9-9-9-9-9-9-9-9-9-9-9-9-8-----------|
A|--9-9-9-9-9-9-9-9-9-9-9-9-9-9-9-9--7-7-7-7-7-7-7-7-7-7-7-7-7-7-6-----------|
E|--7-7-7-7-7-7-7-7-7-7-7-7-7-7-7-7------------------------------------------|

e|---------------------------------------------------------------------------|
B|---------------------------------------------------------------------------|
G|---------------------------------------------------------------------------|
D|--7-7-9-7-7-7-9-7-7-7-9-7-7-7-9-7------------------------------------------|
A|--5-5-5-5-5-5-5-5-5-5-5-5-5-5-5-5--7-7-9-7-7-7-9-7-7-7-9-7-7-7-9-7---------|
E|-----------------------------------5-5-5-5-5-5-5-5-5-5-5-5-5-5-5-5---------|

e|---------------------------------------------------------------------------|
B|---------------------------------------------------------------------------|
G|---------------------------------------------------------------------------|
D|--7-7-9-7-7-7-9-7-7-7-9-7-7-7-9-7--9-9-9-9-9-9-9-9-9-9-9-9-9-9-9-8---------|
A|--5-5-5-5-5-5-5-5-5-5-5-5-5-5-5-5--7-7-7-7-7-7-7-7-7-7-7-7-7-7-7-6---------|
E|---------------------------------------------------------------------------|

e|---------------------------------------------------------------------------|
B|---------------------------------------------------------------------------|
G|---------------------------------------------------------------------------|
D|--7-7-9-7-7-7-9-7-7-7-9-7-7-7-9-7------------------------------------------|
A|--5-5-5-5-5-5-5-5-5-5-5-5-5-5-5-5--7-7-9-7-7-7-9-7-7-7-9-7-7-7-9-7---------|
E|-----------------------------------5-5-5-5-5-5-5-5-5-5-5-5-5-5-5-5---------|

Fade out
Tap to rate this tab
 
# A B C D E F G H I J K L M N O P Q R S T U V W X Y Z