Song name
# A B C D E F G H I J K L M N O P Q R S T U V W X Y Z

Hurriganes - Rocking Belly tab

-------------------------------------------------------------------------------
Hurriganes- Rocking Belly
Album: 10/80
-------------------------------------------------------------------------------

Intro
e|--7----------7-------------------------------------------------------------|
B|--7-9-7------7-9-7-----9b11r9b11r9b11r9------------------------------------|
G|----9-7b8------9-7b8---9b11r9b11r9b11r9------------------------------------|
D|----------9----------9-----------------------------------------------------|
A|---------------------------------------------------------------------------|
E|---------------------------------------------------------------------------|

Verse
e|---------------------------------------------------------------------------|
B|---------------------------------------------------------------------------|
G|---------------------------------------------------------------------------|
D|------------------9-9-11-9-9-9-11-9-------------------9-9-11-9-9-9-11-9----|
A|--9-9-11-9-9-11-9-7-7--7-7-7-7--7-7-9-9-11-9-9-9-11-9-7-7--7-7-7-7--7-7----|
E|--7-7--7-7-7--7-7-------------------7-7--7-7-7-7--7-7----------------------|

Chorus
e|---------------------------------------------------------------------------|
B|---------------------------------------------------------------------------|
G|---------------------------------------------------------------------------|
D|---------------------------------------------------------------------------|
A|--9-9-9-9-6-6-6-6-2-2-2-2-4-4-4-4-9-9-11-9-9-9-11-9-9-9-11-9-9-9-11-9------|
E|--7-7-7-7-4-4-4-4-0-0-0-0-2-2-2-2-7-7--7-7-7-7--7-7-7-7--7-7-7-7--7-7------|

Verse
e|---------------------------------------------------------------------------|
B|---------------------------------------------------------------------------|
G|---------------------------------------------------------------------------|
D|------------------9-9-11-9-9-9-11-9-------------------9-9-11-9-9-9-11-9----|
A|--9-9-11-9-9-11-9-7-7--7-7-7-7--7-7-9-9-11-9-9-9-11-9-7-7--7-7-7-7--7-7----|
E|--7-7--7-7-7--7-7-------------------7-7--7-7-7-7--7-7----------------------|

Chorus
e|---------------------------------------------------------------------------|
B|---------------------------------------------------------------------------|
G|---------------------------------------------------------------------------|
D|---------------------------------------------------------------------------|
A|--9-9-9-9-6-6-6-6-2-2-2-2-4-4-4-4-9-9-11-9-9-9-11-9-9-9-11-9-9-9-11-9------|
E|--7-7-7-7-4-4-4-4-0-0-0-0-2-2-2-2-7-7--7-7-7-7--7-7-7-7--7-7-7-7--7-7------|

Bridge
e|---------------------------------------------------------------------------|
B|---------------------------------------------------------------------------|
G|---9--9---------------------9--9-------------------------------------------|
D|---9--9---------------------9--9-------------------------------------------|
A|---7--7--9-9-11-9-9-9-11-9--7--7--9-9-11-9-9-9-11-9------------------------|
E|---------7-7--7-7-7-7--7-7--------7-7--7-7-7-7--7-7------------------------|

Chorus
e|---------------------------------------------------------------------------|
B|---------------------------------------------------------------------------|
G|---------------------------------------------------------------------------|
D|---------------------------------------------------------------------------|
A|--9-9-9-9-6-6-6-6-2-2-2-2-4-4-4-4-9-9-11-9-9-9-11-9-9-9-11-9-9-9-11-9------|
E|--7-7-7-7-4-4-4-4-0-0-0-0-2-2-2-2-7-7--7-7-7-7--7-7-7-7--7-7-7-7--7-7------|

Verse
e|---------------------------------------------------------------------------|
B|---------------------------------------------------------------------------|
G|---------------------------------------------------------------------------|
D|------------------9-9-11-9-9-9-11-9-------------------9-9-11-9-9-9-11-9----|
A|--9-9-11-9-9-11-9-7-7--7-7-7-7--7-7-9-9-11-9-9-9-11-9-7-7--7-7-7-7--7-7----|
E|--7-7--7-7-7--7-7-------------------7-7--7-7-7-7--7-7----------------------|

Chorus
e|---------------------------------------------------------------------------|
B|---------------------------------------------------------------------------|
G|---------------------------------------------------------------------------|
D|---------------------------------------------------------------------------|
A|--9-9-9-9-6-6-6-6-2-2-2-2-4-4-4-4-9-9-11-9-9-9-11-9-9-9-11-9-9-9-11-9------|
E|--7-7-7-7-4-4-4-4-0-0-0-0-2-2-2-2-7-7--7-7-7-7--7-7-7-7--7-7-7-7--7-7------|

Solo
e|---------------------------------------------------------------------------|
B|-----------------12-12-11----10-10-9---------------------------------------|
G|-----8-8-8-8-----11-11-11-----9--9-9---------------------------------------|
D|-----9-9-9-9-----11-11-11-----9--9-9---9-9-9-9-9-9-9-9---------------------|
A|-----9-9-9-9--9---9--9--9--7--7--7-7---9-9-9-9-9-9-9-9---------------------|
E|--7--7-7-7-7---------------------------7-7-7-7-7-7-7-7---------------------|

e|---------------------------------------------------------------------------|
B|-----------------12-12-11----10-10-9---------------------------------------|
G|-----8-8-8-8-----11-11-11-----9--9-9---------------------------------------|
D|-----9-9-9-9-----11-11-11-----9--9-9---9-9-9-9-9-9-9-9---------------------|
A|-----9-9-9-9--9---9--9--9--7--7--7-7---9-9-9-9-9-9-9-9---------------------|
E|--7--7-7-7-7---------------------------7-7-7-7-7-7-7-7---------------------|

Bridge
e|---------------------------------------------------------------------------|
B|---------------------------------------------------------------------------|
G|---9--9---------------------9--9-------------------------------------------|
D|---9--9---------------------9--9-------------------------------------------|
A|---7--7--9-9-11-9-9-9-11-9--7--7--9-9-11-9-9-9-11-9------------------------|
E|---------7-7--7-7-7-7--7-7--------7-7--7-7-7-7--7-7------------------------|

Chorus
e|---------------------------------------------------------------------------|
B|---------------------------------------------------------------------------|
G|---------------------------------------------------------------------------|
D|---------------------------------------------------------------------------|
A|--9-9-9-9-6-6-6-6-2-2-2-2-4-4-4-4-9-9-11-9-9-9-11-9-9-9-11-9-9-9-11-9------|
E|--7-7-7-7-4-4-4-4-0-0-0-0-2-2-2-2-7-7--7-7-7-7--7-7-7-7--7-7-7-7--7-7------|

Verse
e|---------------------------------------------------------------------------|
B|---------------------------------------------------------------------------|
G|---------------------------------------------------------------------------|
D|------------------9-9-11-9-9-9-11-9-------------------9-9-11-9-9-9-11-9----|
A|--9-9-11-9-9-11-9-7-7--7-7-7-7--7-7-9-9-11-9-9-9-11-9-7-7--7-7-7-7--7-7----|
E|--7-7--7-7-7--7-7-------------------7-7--7-7-7-7--7-7----------------------|

Chorus
e|---------------------------------------------------------------------------|
B|---------------------------------------------------------------------------|
G|---------------------------------------------------------------------------|
D|---------------------------------------------------------------------------|
A|--9-9-9-9-6-6-6-6-2-2-2-2-4-4-4-4-9-9-11-9-9-9-11-9-9-9-11-9-9-9-11-9------|
E|--7-7-7-7-4-4-4-4-0-0-0-0-2-2-2-2-7-7--7-7-7-7--7-7-7-7--7-7-7-7--7-7------|

e|---------------------------------------------------------------------------|
B|---------------------------------------------------------------------------|
G|---------------------------------------------------------------------------|
D|---------------------------------------------------------------------------|
A|--9-9-9-9-6-6-6-6-2-2-2-2-4-4-4-4-9-9-11-9-9-9-11-9-9-9-11-9-9-9-11-9------|
E|--7-7-7-7-4-4-4-4-0-0-0-0-2-2-2-2-7-7--7-7-7-7--7-7-7-7--7-7-7-7--7-7------|

e|--------------------------------------------------------6--5---------------|
B|--------------------------------------------------------6--7---------------|
G|--------------------------------------------------------7--6---------------|
D|--------------------------------------------------------8--7---------------|
A|--9-9-9-9-6-6-6-6-2-2-2-2-4-4-4-4-9-9-11-9-9-9-11-9-9----------------------|
E|--7-7-7-7-4-4-4-4-0-0-0-0-2-2-2-2-7-7--7-7-7-7--7-7-7----------------------|




Tap to rate this tab
# A B C D E F G H I J K L M N O P Q R S T U V W X Y Z