Song name
# A B C D E F G H I J K L M N O P Q R S T U V W X Y Z

Hurriganes - Roadrunner tab

R.I.P Albert Järvinen

intro
E-2b/-2b/-2b/-------0-0-3-4------2--5-6-7-|
---------------------------2-2-4----7-8-9-|
------------------------------------------|
------------------------------------------|
------------------------------------------|
e-----------------------------------------|
riff 1
E-0-0-3-4-------2-|
----------2-2-4---|
------------------|
------------------|
------------------|
e-----------------|
riff 2
E-----------------|
--0-0-3-4-------2-|
----------2-2-4---|
------------------|
------------------|
e-----------------|

chorus
E-7-7-7-7-7-7-7-7-7-7-7-7-7-6-6-5-|
--9-9-9-9-9-9-9-9-9-9-9-9-9-8-8-7-|
----------------------------------|
----------------------------------|
----------------------------------|
e---------------------------------|

i can´t tab the solo yet. hope you like it!

aksuli
Tap to rate this tab
# A B C D E F G H I J K L M N O P Q R S T U V W X Y Z