Song name
# A B C D E F G H I J K L M N O P Q R S T U V W X Y Z

Hurriganes - Pretty Mona tab

-------------------------------------------------------------------------------
Hurriganes- Pretty Mona
Album: Jailbird (1979)
-------------------------------------------------------------------------------

Intro
e|-----------------------------------------|
B|-----------------------------------------|
G|--8--8--8---9-8--------------------------| 2x
D|--9--9--9-------9------------------------|
A|--9--9--9---------9--7-6-----------------|
E|--7--7--7----------------7---------------|


Verse
e|---------------------------------------------------------------------------|
B|----9----------------------------------------------------------------------|
G|----9---8--8---6--6---8--8-------------------------------------------------| 8x
D|----9---9--9---7--7---9--9-------------------------------------------------|
A|----7---9--9---7--7---9--9-------------------------------------------------|
E|--------7--7---5--5---7--7-------------------------------------------------|

Chorus
e|---------------------------------------------------------------------------|
B|----------------------5--5-5---5--5-5--------------------------------------|
G---6--6-6--6--6-6------6--6-6---6--6-6---3--3-3---3--3-3---4-4-4-4-4-4-4-4--|
D|--7--7-7--7--7-7------6--6-6---6--6-6---4--4-4---4--4-4---4-4-4-4-4-4-4-4--|
A|--7--7-7--7--7-7------4--4-4---4--4-4---4--4-4---4--4-4---2-2-2-2-2-2-2-2--|
E|--5--5-5--5--5-5------------------------2--2-2---2--2-2--------------------|

Verse
e|---------------------------------------------------------------------------|
B|----9----------------------------------------------------------------------|
G|----9---8--8---6--6---8--8-------------------------------------------------| 8x
D|----9---9--9---7--7---9--9-------------------------------------------------|
A|----7---9--9---7--7---9--9-------------------------------------------------|
E|--------7--7---5--5---7--7-------------------------------------------------|

Chorus
e|---------------------------------------------------------------------------|
B|----------------------5--5-5---5--5-5--------------------------------------|
G---6--6-6--6--6-6------6--6-6---6--6-6---3--3-3---3--3-3---4-4-4-4-4-4-4-4--|
D|--7--7-7--7--7-7------6--6-6---6--6-6---4--4-4---4--4-4---4-4-4-4-4-4-4-4--|
A|--7--7-7--7--7-7------4--4-4---4--4-4---4--4-4---4--4-4---2-2-2-2-2-2-2-2--|
E|--5--5-5--5--5-5------------------------2--2-2---2--2-2--------------------|

Solo  C#m                           A
e|--9--9-------9-------------------------------------------------------------|
B|-------12b14---12-------------------------10-9-----------------------------|
G|------------------11b13r11-9----11-9-11-9-------9----11p9----9----9\-------|
D|-----------------------------11-------------------11------11---11----------|
A|---------------------------------------------------------------------------|
E|---------------------------------------------------------------------------|

  F#                                   B
e|--------------------------------------7---9----11----12--14--12------------|
B|---------------------------------------------------------------------------|
G|------2-4b6r4-2---4-2-------2------/8--/9--/11----/13--/14---13------------|
D|--2-4-----------4-----4-2-4---4--------------------------------------------|
A|---------------------------------------------------------------------------|
E|---------------------------------------------------------------------------|

Verse
e|---------------------------------------------------------------------------|
B|----9----------------------------------------------------------------------|
G|----9---8--8---6--6---8--8-------------------------------------------------| 8x
D|----9---9--9---7--7---9--9-------------------------------------------------|
A|----7---9--9---7--7---9--9-------------------------------------------------|
E|--------7--7---5--5---7--7-------------------------------------------------|

Chorus
e|---------------------------------------------------------------------------|
B|----------------------5--5-5---5--5-5--------------------------------------|
G---6--6-6--6--6-6------6--6-6---6--6-6---3--3-3---3--3-3--------------------|
D|--7--7-7--7--7-7------6--6-6---6--6-6---4--4-4---4--4-4--------------------|
A|--7--7-7--7--7-7------4--4-4---4--4-4---4--4-4---4--4-4--------------------|
E|--5--5-5--5--5-5------------------------2--2-2---2--2-2--------------------|

Outro
e|-----------------------------------------|
B|-----------------------------------------|
G|--8--8--8---9-8--------------------------| 3x
D|--9--9--9-------9------------------------|
A|--9--9--9---------9--7-6-----------------|
E|--7--7--7----------------7---------------|


e|--0--------|
B|--0--------|
G|--1--------|
D|--2--------|
A|--2--------|
E|--0--------|
Tap to rate this tab
# A B C D E F G H I J K L M N O P Q R S T U V W X Y Z