Song name
# A B C D E F G H I J K L M N O P Q R S T U V W X Y Z

Hurriganes - Super Oil And Asd tab

Hurriganes- Super oil and ASD                                 


                                                                     
Gtr.1



     E  Q      E  Q      Q         W                 
E||-----------------------------|-------------------|
B||-----------------------------|-------------------|
G||-----------------------------|-------------------|
D||-----------------------------|-------------------|
A||-----------------------------|-------------------|
E||-----3br----0--3br----3br----|--0----------------|


  E  Q      E  Q      Q         W                   E  Q      E  Q      Q       
-----------------------------|-------------------|-----------------------------|
-----------------------------|-------------------|-----------------------------|
-----------------------------|-------------------|-----------------------------|
-----------------------------|-------------------|-----------------------------|
-----------------------------|-------------------|-----------------------------|
--L--3br----0--3br----3br----|--0----------------|--0--3br----0--3br----3br----|


  W                   E  Q      E  Q      Q         W                 
-------------------|-----------------------------|-------------------|
-------------------|-----------------------------|-------------------|
-------------------|-----------------------------|-------------------|
-------------------|-----------------------------|-------------------|
-------------------|-----------------------------|-------------------|
--0----------------|--L--3br----0--3br----3br----|--0----------------|


  E  Q      E  Q      Q         W                   W                 
-----------------------------|-------------------|-------------------|
-----------------------------|-------------------|-------------------|
-----------------------------|-------------------|-------------------|
-----------------------------|-------------------|-------------------|
-----------------------------|-------------------|-------------------|
--L--3br----0--3br----3br----|-------------------|-------------------|


  W                   W                   W                 
-------------------|-------------------|-------------------|
-------------------|-------------------|-------------------|
-------------------|-------------------|-------------------|
-------------------|-------------------|-------------------|
-------------------|-------------------|-------------------|
-------------------|-------------------|--0----------------|


  E  Q      E  Q      Q         W                   E  Q      E  Q      Q       
-----------------------------|-------------------|-----------------------------|
-----------------------------|-------------------|-----------------------------|
-----------------------------|-------------------|-----------------------------|
-----------------------------|-------------------|-----------------------------|
-----------------------------|-------------------|-----------------------------|
--L--3br----0--3br----3br----|--0----------------|--L--3br----0--3br----3br----|


  W                   H.           Q       W                 
-------------------|--------------------|-------------------|
-------------------|--------------------|-------------------|
--4----------------|--L------------4----|--2----------------|
--4----------------|--L------------4----|--2----------------|
--2----------------|--L------------2----|--0----------------|
-------------------|--------------------|-------------------|


  H.           Q       W                   H.           Q     
--------------------|-------------------|--------------------|
--------------------|-------------------|--------------------|
--L------------2----|--4----------------|--L------------4----|
--L------------2----|--4----------------|--L------------4----|
--L------------0----|--2----------------|--L------------2----|
--------------------|-------------------|--------------------|


  Q    H.              H.           Q         W                 
--------------------|----------------------|-------------------|
--------------------|----------------------|-------------------|
--2-----------------|----------------------|-------------------|
--2-----------------|----------------------|-------------------|
--0-----------------|----------------------|-------------------|
--------------------|---------------3br----|--0----------------|


  E  Q      E  Q      Q         W                   E  Q      E  Q      Q       
-----------------------------|-------------------|-----------------------------|
-----------------------------|-------------------|-----------------------------|
-----------------------------|-------------------|-----------------------------|
-----------------------------|-------------------|-----------------------------|
-----------------------------|-------------------|-----------------------------|
--L--3br----0--3br----3br----|--0----------------|--L--3br----0--3br----3br----|


  W                   E  Q      E  Q      Q         W                 
-------------------|-----------------------------|-------------------|
-------------------|-----------------------------|-------------------|
-------------------|-----------------------------|-------------------|
-------------------|-----------------------------|-------------------|
-------------------|-----------------------------|-------------------|
--0----------------|--L--3br----0--3br----3br----|--0----------------|


  E  Q      E  Q      Q         W                   W                 
-----------------------------|-------------------|-------------------|
-----------------------------|-------------------|-------------------|
-----------------------------|-------------------|-------------------|
-----------------------------|-------------------|-------------------|
-----------------------------|-------------------|-------------------|
--L--3br----0--3br----3br----|-------------------|-------------------|


  W                   W                   W                 
-------------------|-------------------|-------------------|
-------------------|-------------------|-------------------|
-------------------|-------------------|-------------------|
-------------------|-------------------|-------------------|
-------------------|-------------------|-------------------|
-------------------|-------------------|--0----------------|


  E  Q      E  Q      Q         W                   E  Q      E  Q      Q       
-----------------------------|-------------------|-----------------------------|
-----------------------------|-------------------|-----------------------------|
-----------------------------|-------------------|-----------------------------|
-----------------------------|-------------------|-----------------------------|
-----------------------------|-------------------|-----------------------------|
--L--3br----0--3br----3br----|--0----------------|--L--3br----0--3br----3br----|


  W                   W                   W                   W                 
-------------------|-------------------|-------------------|-------------------|
-------------------|-------------------|-------------------|-------------------|
-------------------|-------------------|-------------------|-------------------|
-------------------|-------------------|-------------------|-------------------|
-------------------|-------------------|-------------------|-------------------|
-------------------|-------------------|-------------------|-------------------|


  W                   W                   W                   W                 
-------------------|-------------------|-------------------|-------------------|
-------------------|-------------------|-------------------|-------------------|
-------------------|-------------------|-------------------|-------------------|
-------------------|-------------------|-------------------|-------------------|
-------------------|-------------------|-------------------|-------------------|
-------------------|-------------------|-------------------|-------------------|


  W                   E  Q      E  Q      Q         W                 
-------------------|-----------------------------|-------------------|
-------------------|-----------------------------|-------------------|
-------------------|-----------------------------|-------------------|
-------------------|-----------------------------|-------------------|
-------------------|-----------------------------|-------------------|
--0----------------|--L--3br----0--3br----3br----|--0----------------|


  E  Q      E  Q      Q         W                   E  Q      E  Q      Q       
-----------------------------|-------------------|-----------------------------|
-----------------------------|-------------------|-----------------------------|
-----------------------------|-------------------|-----------------------------|
-----------------------------|-------------------|-----------------------------|
-----------------------------|-------------------|-----------------------------|
--L--3br----0--3br----3br----|--0----------------|--L--3br----0--3br----3br----|


  W                   E  Q      E  Q      Q         W                 
-------------------|-----------------------------|-------------------|
-------------------|-----------------------------|-------------------|
-------------------|-----------------------------|-------------------|
-------------------|-----------------------------|-------------------|
-------------------|-----------------------------|-------------------|
--0----------------|--L--3br----0--3br----3br----|-------------------|


  W                   W                   W                   W                 
-------------------|-------------------|-------------------|-------------------|
-------------------|-------------------|-------------------|-------------------|
-------------------|-------------------|-------------------|-------------------|
-------------------|-------------------|-------------------|-------------------|
-------------------|-------------------|-------------------|-------------------|
-------------------|-------------------|-------------------|--0----------------|


  E  Q      E  Q      Q         W                   E  Q      E  Q      Q       
-----------------------------|-------------------|-----------------------------|
-----------------------------|-------------------|-----------------------------|
-----------------------------|-------------------|-----------------------------|
-----------------------------|-------------------|-----------------------------|
-----------------------------|-------------------|-----------------------------|
--L--3br----0--3br----3br----|--0----------------|--L--3br----0--3br----3br----|


  W                   H.           Q       W                 
-------------------|--------------------|-------------------|
-------------------|--------------------|-------------------|
--4----------------|--L------------4----|--2----------------|
--4----------------|--L------------4----|--2----------------|
--2----------------|--L------------2----|--0----------------|
-------------------|--------------------|-------------------|


  H.           Q       W                   H.           Q     
--------------------|-------------------|--------------------|
--------------------|-------------------|--------------------|
--L------------2----|--4----------------|--L------------4----|
--L------------2----|--4----------------|--L------------4----|
--L------------0----|--2----------------|--L------------2----|
--------------------|-------------------|--------------------|


  Q    H.              H.           Q         W                 
--------------------|----------------------|-------------------|
--------------------|----------------------|-------------------|
--2-----------------|----------------------|-------------------|
--2-----------------|----------------------|-------------------|
--0-----------------|----------------------|-------------------|
--------------------|---------------3br----|--0----------------|


  E  Q      E  Q      Q         W                   E  Q      E  Q      Q       
-----------------------------|-------------------|-----------------------------|
-----------------------------|-------------------|-----------------------------|
-----------------------------|-------------------|-----------------------------|
-----------------------------|-------------------|-----------------------------|
-----------------------------|-------------------|-----------------------------|
--L--3br----0--3br----3br----|--0----------------|--L--3br----0--3br----3br----|


  W                   H.           Q       W                 
-------------------|--------------------|-------------------|
-------------------|--------------------|-------------------|
--4----------------|--L------------4----|--2----------------|
--4----------------|--L------------4----|--2----------------|
--2----------------|--L------------2----|--0----------------|
-------------------|--------------------|-------------------|


  H.           Q       W                   H.           Q     
--------------------|-------------------|--------------------|
--------------------|-------------------|--------------------|
--L------------2----|--4----------------|--L------------4----|
--L------------2----|--4----------------|--L------------4----|
--L------------0----|--2----------------|--L------------2----|
--------------------|-------------------|--------------------|


  Q    H.              H.           Q           W                 
--------------------|----------------------||--------------------|
--------------------|----------------------||--------------------|
--2-----------------|----------------------||*-------------------|
--2-----------------|----------------------||*-------------------|
--0-----------------|----------------------||--------------------|
--------------------|---------------3br----||---0----------------|


  E  Q      E  Q      Q         W                 
-----------------------------|-------------------|
-----------------------------|-------------------|
-----------------------------|-------------------|
-----------------------------|-------------------|
-----------------------------|-------------------|
--L--3br----0--3br----3br----|--0----------------|


  E  Q      E  Q      Q       4x
------------------------------||
------------------------------||
-----------------------------*||
-----------------------------*||
------------------------------||
--L--3br----0--3br----3br-----||




Gtr.2 (w/slide)                             

     W                   W                   W                 
E||-------------------|-------------------|-------------------|
B||-------------------|-------------------|-------------------|
G||-------------------|-------------------|-------------------|
D||-------------------|-------------------|-------------------|
A||-------------------|-------------------|-------------------|
E||-------------------|-------------------|-------------------|


  W                   W                   W                   W                 
-------------------|-------------------|-------------------|-------------------|
-------------------|-------------------|-------------------|-------------------|
-------------------|-------------------|-------------------|-------------------|
-------------------|-------------------|-------------------|-------------------|
-------------------|-------------------|-------------------|-------------------|
-------------------|-------------------|-------------------|-------------------|


  W                   W                     E   E    Q     Q.       E   
-------------------|-------------------|-------------------------------|
-------------------|-------------------|--/14--14--/14----14------/14--|
-------------------|-------------------|--/14--14--/14----14------/14--|
-------------------|-------------------|-------14---------14-----------|
-------------------|-------------------|-------------------------------|
-------------------|-------------------|-------------------------------|


   E   E    Q     Q.       E      E   E    Q     Q.       E   
------------------------------|------------------------------|
---L--14--/14----14------/14--|---L--14--/14----14------/14--|
---L--14--/14----14------/14--|---L--14--/14----14------/14--|
------14---------14-----------|------14---------14-----------|
------------------------------|------------------------------|
------------------------------|------------------------------|


   E   E    Q     H           W                   W                 
---------------------------|-------------------|-------------------|
---L--14--/14----14--------|-------------------|-------------------|
---L--14--/14----14--------|--9----------------|-------------------|
------14---------14--------|--9----------------|-------------------|
---------------------------|-------------------|-------------------|
---------------------------|-------------------|-------------------|


  W                   W                   W                   W                 
-------------------|-------------------|-------------------|-------------------|
-------------------|-------------------|-------------------|-------------------|
-------------------|-------------------|-------------------|-------------------|
-------------------|-------------------|-------------------|-------------------|
-------------------|-------------------|-------------------|-------------------|
-------------------|-------------------|-------------------|-------------------|


  W                   W                   W                   W                 
-------------------|-------------------|-------------------|-------------------|
-------------------|-------------------|-------------------|-------------------|
-------------------|-------------------|-------------------|-------------------|
-------------------|-------------------|-------------------|-------------------|
-------------------|-------------------|-------------------|-------------------|
-------------------|-------------------|-------------------|-------------------|


  W                   W                   W                   W                 
-------------------|-------------------|-------------------|-------------------|
-------------------|-------------------|-------------------|-------------------|
-------------------|-------------------|-------------------|-------------------|
-------------------|-------------------|-------------------|-------------------|
-------------------|-------------------|-------------------|-------------------|
-------------------|-------------------|-------------------|-------------------|


  W                   W                   W                   W                 
-------------------|-------------------|-------------------|-------------------|
-------------------|-------------------|-------------------|-------------------|
-------------------|-------------------|-------------------|-------------------|
-------------------|-------------------|-------------------|-------------------|
-------------------|-------------------|-------------------|-------------------|
-------------------|-------------------|-------------------|-------------------|


  W                   W                     E   E    Q     Q.       E   
-------------------|-------------------|-------------------------------|
-------------------|-------------------|--/14--14--/14----14------/14--|
-------------------|-------------------|--/14--14--/14----14------/14--|
-------------------|-------------------|-------14---------14-----------|
-------------------|-------------------|-------------------------------|
-------------------|-------------------|-------------------------------|


   E   E    Q     Q.       E      E   E    Q     Q.       E   
------------------------------|------------------------------|
---L--14--/14----14------/14--|---L--14--/14----14------/14--|
---L--14--/14----14------/14--|---L--14--/14----14------/14--|
------14---------14-----------|------14---------14-----------|
------------------------------|------------------------------|
------------------------------|------------------------------|


   E   E   E   E   H            W                   W                 
-----------------------------|-------------------|-------------------|
---L--17--17--17--17\--------|-------------------|-------------------|
---L--18--18--18--18\--------|--9----------------|-------------------|
-----------------------------|--9----------------|-------------------|
-----------------------------|-------------------|-------------------|
-----------------------------|-------------------|-------------------|


  W                   H.           E    E      Q      Q     Q.       E   
-------------------|-----------------------|----------------------------|
-------------------|------------------/16--|---L----/16----16------/16--|
-------------------|------------------/16--|---L----/16----16------/16--|
-------------------|-----------------------|---------------16-----------|
-------------------|-----------------------|----------------------------|
-------------------|-----------------------|----------------------------|


   Q      Q     H             Q.       Q     Q.      
-------------------------|--------------------------|
---L----/16----16--------|--/14------/14----14------|
---L----/16----16--------|--/14------/14----14------|
---------------16--------|------------------14------|
-------------------------|--------------------------|
-------------------------|--------------------------|


    E   E   E   Q    E    E   E       Q.       Q.       Q     
---------------------------------|---------------------------|
--/14--14--14--14-------/14--14--|--/16------/16------/16----|
--/14--14--14--14-------/14--14--|--/16------/16------/16----|
-----------14--14----------------|---------------------------|
---------------------------------|---------------------------|
---------------------------------|---------------------------|


   E    Q.       Q     Q         E   E   E    E   E   E    E   E   
----------------------------|-------------------------------------|
---L--/16------/16----16----|--/17--17--17--/17--17--17--/17--17--|
---L--/16------/16----16----|--/18--18--18--/18--18--18--/18--18--|
----------------------------|-------------------------------------|
----------------------------|-------------------------------------|
----------------------------|-------------------------------------|


   E   E   E   E   H            W                   W                 
-----------------------------|-------------------|-------------------|
--17--17--17--17--17\--------|-------------------|-------------------|
--18--18--18--18--18\--------|--9----------------|-------------------|
-----------------------------|--9----------------|-------------------|
-----------------------------|-------------------|-------------------|
-----------------------------|-------------------|-------------------|


  W                   H.           Q       W                 
-------------------|--------------------|-------------------|
-------------------|--------------------|-------------------|
-------------------|--------------------|-------------------|
-------------------|--------------------|-------------------|
-------------------|--------------------|-------------------|
-------------------|--------------------|-------------------|


  W                   W                   W                 
-------------------|-------------------|-------------------|
-------------------|-------------------|-------------------|
-------------------|-------------------|-------------------|
-------------------|-------------------|-------------------|
-------------------|-------------------|-------------------|
-------------------|-------------------|-------------------|


    E   E    Q     Q.       E      E   E    E   H          E    
-------------------------------|-------------------------------|
--/14--14--/14----14------/14--|---L--14--/14--14--------/14S--|
--/14--14--/14----14------/14--|---L--14--/14--14--------/14S--|
-------14---------14-----------|------14-------14--------------|
-------------------------------|-------------------------------|
-------------------------------|-------------------------------|


   E   E    E   H          E      E   E    Q     H           W                 
------------------------------|---------------------------|-------------------|
--17--17--/17--14--------/14--|---L--14--/14----14--------|-------------------|
--18--18--/18--14--------/14--|---L--14--/14----14--------|-------------------|
---------------14-------------|------14---------14--------|-------------------|
------------------------------|---------------------------|-------------------|
------------------------------|---------------------------|-------------------|


  W                   W                   W                   W                 
-------------------|-------------------|-------------------|-------------------|
-------------------|-------------------|-------------------|-------------------|
-------------------|-------------------|-------------------|-------------------|
-------------------|-------------------|-------------------|-------------------|
-------------------|-------------------|-------------------|-------------------|
-------------------|-------------------|-------------------|-------------------|


  W                   W                   W                   W                 
-------------------|-------------------|-------------------|-------------------|
-------------------|-------------------|-------------------|-------------------|
-------------------|-------------------|-------------------|-------------------|
-------------------|-------------------|-------------------|-------------------|
-------------------|-------------------|-------------------|-------------------|
-------------------|-------------------|-------------------|-------------------|


  W                   W                   W                   W                 
-------------------|-------------------|-------------------|-------------------|
-------------------|-------------------|-------------------|-------------------|
-------------------|-------------------|-------------------|-------------------|
-------------------|-------------------|-------------------|-------------------|
-------------------|-------------------|-------------------|-------------------|
-------------------|-------------------|-------------------|-------------------|


  W                   W                   W                   W                 
-------------------|-------------------|-------------------|-------------------|
-------------------|-------------------|-------------------|-------------------|
-------------------|-------------------|-------------------|-------------------|
-------------------|-------------------|-------------------|-------------------|
-------------------|-------------------|-------------------|-------------------|
-------------------|-------------------|-------------------|-------------------|


  W                   W                   W                   W                 
-------------------|-------------------|-------------------|-------------------|
-------------------|-------------------|-------------------|-------------------|
-------------------|-------------------|-------------------|-------------------|
-------------------|-------------------|-------------------|-------------------|
-------------------|-------------------|-------------------|-------------------|
-------------------|-------------------|-------------------|-------------------|


  W                   W                   W                 
-------------------|-------------------|-------------------|
-------------------|-------------------|-------------------|
-------------------|-------------------|-------------------|
-------------------|-------------------|-------------------|
-------------------|-------------------|-------------------|
-------------------|-------------------|-------------------|


    W                   W                   W                 
|--------------------|-------------------|-------------------|
|--------------------|-------------------|-------------------|
|*-------------------|-------------------|-------------------|
|*-------------------|-------------------|-------------------|
|--------------------|-------------------|-------------------|
|--------------------|-------------------|-------------------|


  W                 4x
--------------------||
--------------------||
-------------------*||
-------------------*||
--------------------||
--------------------||




Duration Legend
---------------
W - whole
H - half
Q - quarter
E - 8th
S - 16th
T - 32nd
X - 64th
. - note dotted
|-n-|  - n-tuplets


Tablature Legend
----------------
L - tied note
x - dead note
g - grace note
(n) - ghost note
> - accentuded note
NH - natural harmonic
AH - artificial harmonic
TH - tapped harmonic
SH - semi harmonic
PH - pitch harmonic
h - hammer on
p - pull off
b - bend
br - bendRelease
pb - preBend
pbr - preBendRelease
brb - bendReleaseBend
\n/ - tremolo bar dip
\n - tremolo bar dive
-/n - tremolo bar Release up
/n\ - tremolo bar inverted dip
/n - tremolo bar return
-\n - tremolo bar Release down
S - shift slide
s - legato slide
/ -  slide into from below or out of upwards
\ -  slide into from above or out of downwards
~ - vibrato
W - wide vibrato
tr - trill
TP - tremolo picking
T - tapping
S - slap
P - pop
< - fade in
^ - brush up
v - brush down
Tap to rate this tab
# A B C D E F G H I J K L M N O P Q R S T U V W X Y Z