Song name
# A B C D E F G H I J K L M N O P Q R S T U V W X Y Z

Hurriganes - Oh Baby Doll tab

Hurriganes- Oh Baby Doll  

Tabbed by larmo


Gtr.1

      E  S S S S E  S S S S S S E     E  S S S S S S S S S S S S S S    
E||--------------------------------|----------------------------------||
B||--------------------------------|----------------------------------||
G||*--2--2-2-5-2-------------------|--2--2-2-5-2---2-2-x-x-x-x-x-x-x-*||
D||*--2--2-2-2-2-5--2-2-2-2-5-2-5--|--2--2-2-2-2-5-2-2-x-x-x-x-x-x-x-*||
A||---0--0-0-0-0-0--0-0-0-0-0-0-0--|--0--0-0-0-0-0-0-0-x-x-x-x-x-x-x--||
E||--------------------------------|----------------------------------||


   E  S S S S E  S S S S S S E     E  S S S S E  S S S S S S E     
--------------------------------|--------------------------------||
--------------------------------|--------------------------------||
*--2--2-2-5-2-------------------|--2--2-2-5-2-------------------*||
*--2--2-2-2-2-5--2-2-2-2-5-2-5--|--2--2-2-2-2-5--2-2-2-2-5-2-5--*||
---0--0-0-0-0-0--0-0-0-0-0-0-0--|--0--0-0-0-0-0--0-0-0-0-0-0-0---||
--------------------------------|--------------------------------||


   E  S S S S E  S S S S S S E     E  S S S S E  S S S S S S E   
--------------------------------|-------------------------------|
--------------------------------|-------------------------------|
*--2--2-2-5-2-------------------|--2--2-2-5-2-------------------|
*--2--2-2-2-2-5--2-2-2-2-5-2-5--|--2--2-2-2-2-5--2-2-2-2-5-2-5--|
---0--0-0-0-0-0--0-0-0-0-0-0-0--|--0--0-0-0-0-0--0-0-0-0-0-0-0--|
--------------------------------|-------------------------------|


  E  S S S S E  S S S S S S E     E  S S S S E  S E  S E  E   
-------------------------------|-----------------------------|
-------------------------------|-----------------------------|
--2--2-2-5-2-------------------|--2--2-2-5-2----x-2--2-5--5--|
--2--2-2-2-2-5--2-2-2-2-5-2-5--|--2--2-2-2-2-5--x-2--2-3--3--|
--0--0-0-0-0-0--0-0-0-0-0-0-0--|--0--0-0-0-0-0--x-0--0-3--3--|
-------------------------------|-----------------------------|


  E  E  S S S S S E  S S S S S    E  E  S S S S S E.  S S E   
-------------------------------|-----------------------------|
-------------------------------|-----------------------------|
--7--7--x-x-x-x-7-7--7-7-5-5-5-|--7--7--x-x-x-x-7-7---5-5-5--|
--7--7--x-x-x-x-7-7--7-7-5-5-5-|--7--7--x-x-x-x-7-7---5-3-3--|
--5--5--x-x-x-x-5-5--5-5-3-3-3-|--5--5--x-x-x-x-5-5---3-3-3--|
-------------------------------|-----------------------------|


  E  S S S S E  S S S S S S E     E  S S S S E  S S S S S S E   
-------------------------------|-------------------------------|
-------------------------------|-------------------------------|
--2--2-2-5-2-------------------|--2--2-2-5-2-------------------|
--2--2-2-2-2-5--2-2-2-2-5-2-5--|--2--2-2-2-2-5--2-2-2-2-5-2-5--|
--0--0-0-0-0-0--0-0-0-0-0-0-0--|--0--0-0-0-0-0--0-0-0-0-0-0-0--|
-------------------------------|-------------------------------|


  E  E  S S S S  S  E   S  S  E   S    E  E  S S S S S S E  S S E   
------------------------------------|------------------------------|
------------------------------------|------------------------------|
--9--9--x-x-x-x-12-12---x-14-14---x-|--7--7--x-x-x-x-7-7-7--8-8-8--|
--9--9--x-x-x-x-12-12---x-14-14---x-|--7--7--x-x-x-x-7-7-7--8-8-8--|
--7--7--x-x-x-x---------------------|--5--5--x-x-x-x-5-5-5--6-6-6--|
------------------------------------|------------------------------|


  E  E  S S S S  S  E   S  S  E   S    E  E  S S S S S S E  S S E   
------------------------------------|------------------------------|
------------------------------------|------------------------------|
--9--9--x-x-x-x-12-12---x-14-14---x-|--7--7--x-x-x-x-7-7-7--5-5-5--|
--9--9--x-x-x-x-12-12---x-14-14---x-|--7--7--x-x-x-x-7-7-7--5-5-5--|
--7--7--x-x-x-x---------------------|--5--5--x-x-x-x-5-5-5--3-3-3--|
------------------------------------|------------------------------|


  E  S S S S E  S S S S S S E     E  S S S S E  S S S S S S E   
-------------------------------|-------------------------------|
-------------------------------|-------------------------------|
--2--2-2-5-2-------------------|--2--2-2-5-2-------------------|
--2--2-2-2-2-5--2-2-2-2-5-2-5--|--2--2-2-2-2-5--2-2-2-2-5-2-5--|
--0--0-0-0-0-0--0-0-0-0-0-0-0--|--0--0-0-0-0-0--0-0-0-0-0-0-0--|
-------------------------------|-------------------------------|


  E  S S S S E  S S S S S S E     E  S S S S E  S S S S S S E     
-------------------------------|--------------------------------||
-------------------------------|--------------------------------||
--2--2-2-5-2-------------------|--2--2-2-5-2-------------------*||
--2--2-2-2-2-5--2-2-2-2-5-2-5--|--2--2-2-2-2-5--2-2-2-2-5-2-5--*||
--0--0-0-0-0-0--0-0-0-0-0-0-0--|--0--0-0-0-0-0--0-0-0-0-0-0-0---||
-------------------------------|--------------------------------||


  PM PM PM PM PM PM PM PM    PM PM PM PM PM PM PM PM  
  E  E  E  E  E  E  E  E     E  E  E  E  E  E  E  E   
--------------------------|--------------------------|
--------------------------|--------------------------|
--------------------------|--------------------------|
--7--7--7--7--7--7--7--7--|--7--7--7--7--7--7--7--7--|
--7--7--7--7--7--7--7--7--|--7--7--7--7--7--7--7--7--|
--5--5--5--5--5--5--5--5--|--5--5--5--5--5--5--5--5--|


  PM PM PM PM PM PM PM PM    PM PM PM PM PM PM PM PM  
  E  E  E  E  E  E  E  E     E  E  E  E  E  E  E  E   
--------------------------|--------------------------|
--------------------------|--------------------------|
--------------------------|--------------------------|
--7--7--7--7--7--7--7--7--|--7--7--7--7--7--7--7--7--|
--7--7--7--7--7--7--7--7--|--7--7--7--7--7--7--7--7--|
--5--5--5--5--5--5--5--5--|--5--5--5--5--5--5--5--5--|


  PM PM PM PM PM PM PM PM    PM PM PM PM PM PM PM PM  
  E  E  E  E  E  E  E  E     E  E  E  E  E  E  E  E   
--------------------------|--------------------------|
--------------------------|--------------------------|
--7--7--7--7--7--7--7--7--|--7--7--7--7--7--7--7--7--|
--7--7--7--7--7--7--7--7--|--7--7--7--7--7--7--7--7--|
--5--5--5--5--5--5--5--5--|--5--5--5--5--5--5--5--5--|
--------------------------|--------------------------|


  PM PM PM PM PM PM PM PM    PM PM PM PM PM PM PM PM  
  E  E  E  E  E  E  E  E     E  E  E  E  E  E  E  E   
--------------------------|--------------------------|
--------------------------|--------------------------|
--------------------------|--------------------------|
--7--7--7--7--7--7--7--7--|--7--7--7--7--7--7--7--7--|
--7--7--7--7--7--7--7--7--|--7--7--7--7--7--7--7--7--|
--5--5--5--5--5--5--5--5--|--5--5--5--5--5--5--5--5--|


  PM PM PM PM PM PM PM PM    PM PM PM PM PM PM PM PM  
  E  E  E  E  E  E  E  E     E  E  E  E  E  E  E  E   
--------------------------|--------------------------|
--------------------------|--------------------------|
--9--9--9--9--9--9--9--9--|--7--7--7--7--7--7--7--7--|
--9--9--9--9--9--9--9--9--|--7--7--7--7--7--7--7--7--|
--7--7--7--7--7--7--7--7--|--5--5--5--5--5--5--5--5--|
--------------------------|--------------------------|


  PM PM PM PM PM PM PM PM                                                       
  E  E  E  E  E  E  E  E     Q    H.              E  S S S S E  S S S S S S E   
--------------------------|--------------------|-------------------------------|
--------------------------|--------------------|-------------------------------|
--9--9--9--9--9--9--9--9--|--7-----------------|--2--2-2-5-2-------------------|
--9--9--9--9--9--9--9--9--|--7-----------------|--2--2-2-2-2-5--2-2-2-2-5-2-5--|
--7--7--7--7--7--7--7--7--|--5-----------------|--0--0-0-0-0-0--0-0-0-0-0-0-0--|
--------------------------|--------------------|-------------------------------|


  E  S S S S E  S S S S S S E     E  S S S S E  S S S S S S E   
-------------------------------|-------------------------------|
-------------------------------|-------------------------------|
--2--2-2-5-2-------------------|--2--2-2-5-2-------------------|
--2--2-2-2-2-5--2-2-2-2-5-2-5--|--2--2-2-2-2-5--2-2-2-2-5-2-5--|
--0--0-0-0-0-0--0-0-0-0-0-0-0--|--0--0-0-0-0-0--0-0-0-0-0-0-0--|
-------------------------------|-------------------------------|


                                  PM PM PM PM PM PM PM PM  
  E  S S S S E  S S S S S S E     E  E  E  E  E  E  E  E   
-------------------------------|--------------------------|
-------------------------------|--------------------------|
--2--2-2-5-2-------------------|--------------------------|
--2--2-2-2-2-5--2-2-2-2-5-2-5--|--7--7--7--7--7--7--7--7--|
--0--0-0-0-0-0--0-0-0-0-0-0-0--|--7--7--7--7--7--7--7--7--|
-------------------------------|--5--5--5--5--5--5--5--5--|


  PM PM PM PM PM PM PM PM    PM PM PM PM PM PM PM PM  
  E  E  E  E  E  E  E  E     E  E  E  E  E  E  E  E   
--------------------------|--------------------------|
--------------------------|--------------------------|
--------------------------|--------------------------|
--7--7--7--7--7--7--7--7--|--7--7--7--7--7--7--7--7--|
--7--7--7--7--7--7--7--7--|--7--7--7--7--7--7--7--7--|
--5--5--5--5--5--5--5--5--|--5--5--5--5--5--5--5--5--|


  PM PM PM PM PM PM PM PM    PM PM PM PM PM PM PM PM  
  E  E  E  E  E  E  E  E     E  E  E  E  E  E  E  E   
--------------------------|--------------------------|
--------------------------|--------------------------|
--------------------------|--7--7--7--7--7--7--7--7--|
--7--7--7--7--7--7--7--7--|--7--7--7--7--7--7--7--7--|
--7--7--7--7--7--7--7--7--|--5--5--5--5--5--5--5--5--|
--5--5--5--5--5--5--5--5--|--------------------------|


  PM PM PM PM PM PM PM PM    PM PM PM PM PM PM PM PM  
  E  E  E  E  E  E  E  E     E  E  E  E  E  E  E  E   
--------------------------|--------------------------|
--------------------------|--------------------------|
--7--7--7--7--7--7--7--7--|--------------------------|
--7--7--7--7--7--7--7--7--|--7--7--7--7--7--7--7--7--|
--5--5--5--5--5--5--5--5--|--7--7--7--7--7--7--7--7--|
--------------------------|--5--5--5--5--5--5--5--5--|


  PM PM PM PM PM PM PM PM    PM PM PM PM PM PM PM PM  
  E  E  E  E  E  E  E  E     E  E  E  E  E  E  E  E   
--------------------------|--------------------------|
--------------------------|--------------------------|
--------------------------|--9--9--9--9--9--9--9--9--|
--7--7--7--7--7--7--7--7--|--9--9--9--9--9--9--9--9--|
--7--7--7--7--7--7--7--7--|--7--7--7--7--7--7--7--7--|
--5--5--5--5--5--5--5--5--|--------------------------|


  PM PM PM PM PM PM PM PM    PM PM PM PM PM PM PM PM                       
  E  E  E  E  E  E  E  E     E  E  E  E  E  E  E  E     Q    H.            
--------------------------|--------------------------|--------------------|
--------------------------|--------------------------|--------------------|
--7--7--7--7--7--7--7--7--|--9--9--9--9--9--9--9--9--|--7-----------------|
--7--7--7--7--7--7--7--7--|--9--9--9--9--9--9--9--9--|--7-----------------|
--5--5--5--5--5--5--5--5--|--7--7--7--7--7--7--7--7--|--5-----------------|
--------------------------|--------------------------|--------------------|


  E  S S S S E  S S S S S S E     E  S S S S E  S S S S S S E   
-------------------------------|-------------------------------|
-------------------------------|-------------------------------|
--2--2-2-5-2-------------------|--2--2-2-5-2-------------------|
--2--2-2-2-2-5--2-2-2-2-5-2-5--|--2--2-2-2-2-5--2-2-2-2-5-2-5--|
--0--0-0-0-0-0--0-0-0-0-0-0-0--|--0--0-0-0-0-0--0-0-0-0-0-0-0--|
-------------------------------|-------------------------------|


  E  S S S S E  S S S S S S E     E  S S S S E  S S S S S S E   
-------------------------------|-------------------------------|
-------------------------------|-------------------------------|
--2--2-2-5-2-------------------|--2--2-2-5-2-------------------|
--2--2-2-2-2-5--2-2-2-2-5-2-5--|--2--2-2-2-2-5--2-2-2-2-5-2-5--|
--0--0-0-0-0-0--0-0-0-0-0-0-0--|--0--0-0-0-0-0--0-0-0-0-0-0-0--|
-------------------------------|-------------------------------|


    E  E  S S S S  S  E   S  S  E   S    E  E  S S S S S S E  S S E     
|-------------------------------------|-------------------------------||
|-------------------------------------|-------------------------------||
|*--9--9--x-x-x-x-12-12---x-14-14---x-|--7--7--x-x-x-x-7-7-7--8-8-8--*||
|*--9--9--x-x-x-x-12-12---x-14-14---x-|--7--7--x-x-x-x-7-7-7--8-8-8--*||
|---7--7--x-x-x-x---------------------|--5--5--x-x-x-x-5-5-5--6-6-6---||
|-------------------------------------|-------------------------------||


  E  E  S S S S  S  E   S  S  E   S    E  E  S S S S S S E  S S E   
------------------------------------|------------------------------|
------------------------------------|------------------------------|
--9--9--x-x-x-x-12-12---x-14-14---x-|--7--7--x-x-x-x-7-7-7--5-5-5--|
--9--9--x-x-x-x-12-12---x-14-14---x-|--7--7--x-x-x-x-7-7-7--5-5-5--|
--7--7--x-x-x-x---------------------|--5--5--x-x-x-x-5-5-5--3-3-3--|
------------------------------------|------------------------------|


  E  S S S S E  S S S S S S E     E  S S S S E  S S S S S S E   
-------------------------------|-------------------------------|
-------------------------------|-------------------------------|
--2--2-2-5-2-------------------|--2--2-2-5-2-------------------|
--2--2-2-2-2-5--2-2-2-2-5-2-5--|--2--2-2-2-2-5--2-2-2-2-5-2-5--|
--0--0-0-0-0-0--0-0-0-0-0-0-0--|--0--0-0-0-0-0--0-0-0-0-0-0-0--|
-------------------------------|-------------------------------|


  E  S S S S E  S S S S S S E     E  S S S S E  S S S S S S E   
-------------------------------|-------------------------------|
-------------------------------|-------------------------------|
--2--2-2-5-2-------------------|--2--2-2-5-2-------------------|
--2--2-2-2-2-5--2-2-2-2-5-2-5--|--2--2-2-2-2-5--2-2-2-2-5-2-5--|
--0--0-0-0-0-0--0-0-0-0-0-0-0--|--0--0-0-0-0-0--0-0-0-0-0-0-0--|
-------------------------------|-------------------------------|


  E  S S S S E  S S S S S S E     E  S S S S E  S S S S S S E   
-------------------------------|-------------------------------|
-------------------------------|-------------------------------|
--2--2-2-5-2-------------------|--2--2-2-5-2-------------------|
--2--2-2-2-2-5--2-2-2-2-5-2-5--|--2--2-2-2-2-5--2-2-2-2-5-2-5--|
--0--0-0-0-0-0--0-0-0-0-0-0-0--|--0--0-0-0-0-0--0-0-0-0-0-0-0--|
-------------------------------|-------------------------------|


  E  E  Q    H          
----------------------||
----------------------||
--2-------------------||
--2-------------------||
--0-------------------||
----------------------||




Gtr.2
                             
      W                   W                      W                 
E||--------------------|--------------------||--------------------|
B||--------------------|--------------------||--------------------|
G||*-------------------|-------------------*||*-------------------|
D||*-------------------|-------------------*||*-------------------|
A||--------------------|--------------------||--------------------|
E||--------------------|--------------------||--------------------|


  W                      W                   W                 
--------------------||--------------------|-------------------|
--------------------||--------------------|-------------------|
-------------------*||*-------------------|-------------------|
-------------------*||*-------------------|-------------------|
--------------------||--------------------|-------------------|
--------------------||--------------------|-------------------|


  W                   W                   W                   W                 
-------------------|-------------------|-------------------|-------------------|
-------------------|-------------------|-------------------|-------------------|
-------------------|-------------------|-------------------|-------------------|
-------------------|-------------------|-------------------|-------------------|
-------------------|-------------------|-------------------|-------------------|
-------------------|-------------------|-------------------|-------------------|


  W                   W                   W                   W                 
-------------------|-------------------|-------------------|-------------------|
-------------------|-------------------|-------------------|-------------------|
-------------------|-------------------|-------------------|-------------------|
-------------------|-------------------|-------------------|-------------------|
-------------------|-------------------|-------------------|-------------------|
-------------------|-------------------|-------------------|-------------------|


  W                   W                   W                   W                 
-------------------|-------------------|-------------------|-------------------|
-------------------|-------------------|-------------------|-------------------|
-------------------|-------------------|-------------------|-------------------|
-------------------|-------------------|-------------------|-------------------|
-------------------|-------------------|-------------------|-------------------|
-------------------|-------------------|-------------------|-------------------|


  W                   W                     Q     H.             
-------------------|--------------------||----------------------|
-------------------|--------------------||--5-----5-------------|
-------------------|-------------------*||--7b----7b------------|
-------------------|-------------------*||----------------------|
-------------------|--------------------||----------------------|
-------------------|--------------------||----------------------|


   Q      H.               Q     H.                Q      H.             
------------------------|----------------------|------------------------|
---8------8-------------|--5-----5-------------|---8------8-------------|
--10b----10b------------|--7b----7b------------|--10b----10b------------|
------------------------|----------------------|------------------------|
------------------------|----------------------|------------------------|
------------------------|----------------------|------------------------|


           W                        W               W                       
  Q    E   Q.     Q       S S  Q    Q.     E  E     H         E  S S E  E   
-----------------------|-------5----5------5-----|--7b--------L--5---5--5--|
--7--------------------|----------------------8--|-----------------8-------|
-------7b--5------5----|--7-Lb-------------------|-------------------------|
-----------------------|-------------------------|-------------------------|
-----------------------|-------------------------|-------------------------|
-----------------------|-------------------------|-------------------------|


        W                                            
  E  E  Q    Q    E  E      Q     E  Q    E   E  E   
--L---------------------|---------------------------|
-----8------------------|--10b----8-----------------|
--------7----5----5--5--|------------9----9--11--9--|
------------------------|---------------------------|
------------------------|---------------------------|
------------------------|---------------------------|


    E   Q     Q     E   E   E      Q      Q      Q      Q      
-------------------------------|------------------------------|
-------10----10--------10--10--|--15b----15b----15b----15b----|
--/11--------------11----------|------------------------------|
-------------------------------|------------------------------|
-------------------------------|------------------------------|
-------------------------------|------------------------------|


   H.             S  E.      H        H           W                 
-------------------------|---------------------|-------------------|
--17b------------13------|---------------------|-------------------|
--------------------14---|---L-----------------|-------------------|
-------------------------|---------------------|-------------------|
-------------------------|---------------------|-------------------|
-------------------------|---------------------|-------------------|


  W                   W                 
-------------------|-------------------|
-------------------|-------------------|
-------------------|-------------------|
-------------------|-------------------|
-------------------|-------------------|
-------------------|-------------------|


  E   S   S   S   S   S   S   S   S   S   S   S   S   S   S    
--------------------------------------------------------------|
--5---5---5---5---5---5---5---5---5---5---5---5---5---5---5---|
--7b--7pb-7pb-7pb-7pb-7pb-7pb-7pb-7pb-7pb-7pb-7pb-7pb-7pb-7pb-|
--------------------------------------------------------------|
--------------------------------------------------------------|
--------------------------------------------------------------|


  S   S   S   S   S   S   S   S   E  E  E.  S    Q    E.  S S E.  E  E   
----------------------------------------------|-------------------------|
--5---5---5---5---5---5---5---5---------5-----|-------5-----7-5------5--|
--7pb-7pb-7pb-7pb-7pb-7pb-7pb-7pb-7--7--5---7-|-------5-----7-5------5--|
----------------------------------------------|--7--------7-------7-----|
----------------------------------------------|-------------------------|
----------------------------------------------|-------------------------|


  S Q    S S S Q    E  E   
--------------------------|
--7-5----L----------5--5--|
--7-5----L---5------5--5--|
-----------7-5-7----------|
--------------------------|
--------------------------|


   E    S    S    S    S    S    S    S    S    S    S    S    S    S    S  
---------------------------------------------------------------------------|
--10---10---10---10---10---10---10---10---10---10---10---10---10---10---10-|
--12b--12pb-12pb-12pb-12pb-12pb-12pb-12pb-12pb-12pb-12pb-12pb-12pb-12pb-12-|
---------------------------------------------------------------------------|
---------------------------------------------------------------------------|
---------------------------------------------------------------------------|


   S   S    S    S    S   S    S    S    S   S    S    S    S   S    S    S  
----------------------------------------------------------------------------|
--10--10---10---10---10--10---10---10---10--10---10---10---10--10---10---10-|
--12b-12pb-12pb-12pb-12b-12pb-12pb-12pb-12b-12pb-12pb-12pb-12b-12pb-12pb-12-|
----------------------------------------------------------------------------|
----------------------------------------------------------------------------|
----------------------------------------------------------------------------|


   Q      E  E  S E.  S S E     E  S S Q    S S Q    E   
-----------------------------|--------------------------|
---------10--8--5-5----------|-----5-7-5----------------|
--12b-------------5----------|-----5-7-5-------------5--|
----------------------7-5-7--|--L-----------7-5-7-------|
-----------------------------|--------------------------|
-----------------------------|--------------------------|


   Q      Q      S    S S  S E  E   
-----------------------------------|
-----------------------------------|
--11b----11b----11br--L-9----9--9--|
--------------------------11-------|
-----------------------------------|
-----------------------------------|


    E   S  S  E.   S  S    S  S  S  E   S  S  
---------------------------------------------|
-------10----10---12-12br--L-10----10--12-10-|
--/11-----11--------------------11-----------|
---------------------------------------------|
---------------------------------------------|
---------------------------------------------|


   E.    S  E.    S  E.    S  E.    S  
--------10-------10-------10-------10-|
--12b------12b------12b------12b------|
--------------------------------------|
--------------------------------------|
--------------------------------------|
--------------------------------------|


   E    S  S  S  S  E    S  S  S  S  E     E      S  S  H         E  E  E   
-------15-15-15-15------15-15-15-15-----------|----------------------------|
--15b--------------15b--------------15br---L--|--13--------------/8--8--8--|
----------------------------------------------|-----14--L--------/9--9--9--|
----------------------------------------------|----------------------------|
----------------------------------------------|----------------------------|
----------------------------------------------|----------------------------|


                                         W               
   E  E  E  E   E   E  E  E     E  E  E  Q    S S E  E   
-----------------------------|--------------------------|
--/8--8--8--8--10--10--8--8--|--7--x--7--5-----------5--|
--/9--9--9--9--11--11--9--9--|--7--x--7--5-----------5--|
-----------------------------|----------------7-5-7-----|
-----------------------------|--------------------------|
-----------------------------|--------------------------|


  E  E  E  E  S   S S S E  E        W                   W                   
-------------------------------||--------------------|--------------------||
-----7--7--5--------5---5------||--------------------|--------------------||
-----7--7--5--7br-L-5---5------||*-------------------|-------------------*||
----------------------7----7\--||*-------------------|-------------------*||
-------------------------------||--------------------|--------------------||
-------------------------------||--------------------|--------------------||


  W                   W                   W                   W                 
-------------------|-------------------|-------------------|-------------------|
-------------------|-------------------|-------------------|-------------------|
-------------------|-------------------|-------------------|-------------------|
-------------------|-------------------|-------------------|-------------------|
-------------------|-------------------|-------------------|-------------------|
-------------------|-------------------|-------------------|-------------------|


  W                   W                   W                   W                 
-------------------|-------------------|-------------------|-------------------|
-------------------|-------------------|-------------------|-------------------|
-------------------|-------------------|-------------------|-------------------|
-------------------|-------------------|-------------------|-------------------|
-------------------|-------------------|-------------------|-------------------|
-------------------|-------------------|-------------------|-------------------|


  W                  
-------------------||
-------------------||
-------------------||
-------------------||
-------------------||
-------------------||




Duration Legend
---------------
W - whole
H - half
Q - quarter
E - 8th
S - 16th
T - 32nd
X - 64th
. - note dotted
|-n-|  - n-tuplets


Tablature Legend
----------------
L - tied note
x - dead note
g - grace note
(n) - ghost note
> - accentuded note
NH - natural harmonic
AH - artificial harmonic
TH - tapped harmonic
SH - semi harmonic
PH - pitch harmonic
h - hammer on
p - pull off
b - bend
br - bendRelease
pb - preBend
pbr - preBendRelease
brb - bendReleaseBend
\n/ - tremolo bar dip
\n - tremolo bar dive
-/n - tremolo bar Release up
/n\ - tremolo bar inverted dip
/n - tremolo bar return
-\n - tremolo bar Release down
S - shift slide
s - legato slide
/ -  slide into from below or out of upwards
\ -  slide into from above or out of downwards
~ - vibrato
W - wide vibrato
tr - trill
TP - tremolo picking
T - tapping
S - slap
P - pop
< - fade in
^ - brush up
v - brush down
Tap to rate this tab
 
# A B C D E F G H I J K L M N O P Q R S T U V W X Y Z