Song name
# A B C D E F G H I J K L M N O P Q R S T U V W X Y Z

Hurriganes - Walkin The Dog tab

Hurriganes- Walkin' the Dog                                

Tabbed by larmo

Gtr. 1

     Q      E  Q    E  E  E     Q      E  Q    E  E  E   
E||--------------------------|--------------------------|
B||--------------------------|--------------------------|
G||--------------------------|--------------------------|
D||------------5----------7--|------------5----------7--|
A||-------5g7-------7--------|-------5g7-------7--------|
E||--------------------8-----|--------------------8-----|


  Q      E  Q    E  E  E     Q      E  Q    E  E  E     W                 
--------------------------|--------------------------|-------------------|
--------------------------|--------------------------|-------------------|
--------------------------|--------------------------|-------------------|
------------5----------7--|------------5----------7--|-------------------|
-------5g7-------7--------|-------5g7-------7--------|-------------------|
--------------------8-----|--------------------8-----|-------------------|


  Q      E  Q    E  E  E     W                   Q      E  Q    E  E  E   
--------------------------|-------------------|--------------------------|
--------------------------|-------------------|--------------------------|
--------------------------|-------------------|--------------------------|
------------5----------7--|-------------------|------------5----------7--|
-------5g7-------7--------|-------------------|-------5g7-------7--------|
--------------------8-----|-------------------|--------------------8-----|


    W                   Q      E  Q    E  E  E     W                 
|--------------------|--------------------------|-------------------|
|--------------------|--------------------------|-------------------|
|*-------------------|--------------------------|-------------------|
|*-------------------|------------5----------7--|-------------------|
|--------------------|-------5g7-------7--------|-------------------|
|--------------------|--------------------8-----|-------------------|


  Q      E  Q    E  E  E     W                   W                 
--------------------------|-------------------|-------------------|
--------------------------|-------------------|-------------------|
--------------------------|-------------------|-------------------|
------------5----------7--|-------------------|-------------------|
-------5g7-------7--------|-------------------|-------------------|
--------------------8-----|-------------------|-------------------|


  W                   W                   Q      E  Q    E  E  E   
-------------------|-------------------|--------------------------|
-------------------|-------------------|--------------------------|
-------------------|-------------------|------------5----------7--|
-------------------|-------------------|-------5g7-------7--------|
-------------------|-------------------|--------------------9-----|
-------------------|-------------------|--------------------------|


  W                   Q      E  Q    E  E  E     W                 
-------------------|--------------------------|-------------------|
-------------------|--------------------------|-------------------|
-------------------|--------------------------|-------------------|
-------------------|------------5----------7--|-------------------|
-------------------|-------5g7-------7--------|-------------------|
-------------------|--------------------8-----|-------------------|


  W                   W                   W                 
-------------------|-------------------|-------------------|
-------------------|-------------------|-------------------|
-------------------|-------------------|-------------------|
-------------------|-------------------|-------------------|
-------------------|-------------------|-------------------|
-------------------|-------------------|-------------------|


  W                     Q      E  Q    E  E  E     W                 
--------------------||--------------------------|-------------------|
--------------------||--------------------------|-------------------|
-------------------*||--------------------------|-------------------|
-------------------*||------------5----------7--|-------------------|
--------------------||-------5g7-------7--------|-------------------|
--------------------||--------------------8-----|-------------------|


  Q      E  Q    E  E  E     W                   Q      E  Q    E  E  E   
--------------------------|-------------------|--------------------------|
--------------------------|-------------------|--------------------------|
--------------------------|-------------------|------------5----------7--|
------------5----------7--|-------------------|-------5g7-------7--------|
-------5g7-------7--------|-------------------|--------------------9-----|
--------------------8-----|-------------------|--------------------------|


  W                   Q      E  Q    E  E  E     W                 
-------------------|--------------------------|-------------------|
-------------------|--------------------------|-------------------|
-------------------|--------------------------|-------------------|
-------------------|------------5----------7--|-------------------|
-------------------|-------5g7-------7--------|-------------------|
-------------------|--------------------8-----|-------------------|


  W                   W                   W                   W                 
-------------------|-------------------|-------------------|-------------------|
-------------------|-------------------|-------------------|-------------------|
-------------------|-------------------|-------------------|-------------------|
-------------------|-------------------|-------------------|-------------------|
-------------------|-------------------|-------------------|-------------------|
-------------------|-------------------|-------------------|-------------------|


  W                   W                   W                   W                 
-------------------|-------------------|-------------------|-------------------|
-------------------|-------------------|-------------------|-------------------|
-------------------|-------------------|-------------------|-------------------|
-------------------|-------------------|-------------------|-------------------|
-------------------|-------------------|-------------------|-------------------|
-------------------|-------------------|-------------------|-------------------|


  W                   W                   W                   W                 
-------------------|-------------------|-------------------|-------------------|
-------------------|-------------------|-------------------|-------------------|
-------------------|-------------------|-------------------|-------------------|
-------------------|-------------------|-------------------|-------------------|
-------------------|-------------------|-------------------|-------------------|
-------------------|-------------------|-------------------|-------------------|


  W                   W                   W                   W                 
-------------------|-------------------|-------------------|-------------------|
-------------------|-------------------|-------------------|-------------------|
-------------------|-------------------|-------------------|-------------------|
-------------------|-------------------|-------------------|-------------------|
-------------------|-------------------|-------------------|-------------------|
-------------------|-------------------|-------------------|-------------------|


  Q      E  Q    E  E  E     Q      E  Q    E  E  E   
--------------------------|--------------------------|
--------------------------|--------------------------|
--------------------------|--------------------------|
------------5----------7--|------------5----------7--|
-------5g7-------7--------|-------5g7-------7--------|
--------------------8-----|--------------------8-----|


  Q      E  Q    E  E  E     Q      E  Q    E  E  E     W                 
--------------------------|--------------------------|-------------------|
--------------------------|--------------------------|-------------------|
--------------------------|--------------------------|-------------------|
------------5----------7--|------------5----------7--|-------------------|
-------5g7-------7--------|-------5g7-------7--------|-------------------|
--------------------8-----|--------------------8-----|-------------------|


  Q      E  Q    E  E  E     Q      E  Q    E  E  E   
--------------------------|--------------------------|
--------------------------|--------------------------|
--------------------------|--------------------------|
------------5----------7--|------------5----------7--|
-------5g7-------7--------|-------5g7-------7--------|
--------------------8-----|--------------------8-----|


  Q      E  Q    E  E  E     Q      E  Q    E  E  E   
--------------------------|--------------------------|
--------------------------|--------------------------|
--------------------------|--------------------------|
------------5----------7--|------------5----------7--|
-------5g7-------7--------|-------5g7-------7--------|
--------------------8-----|--------------------8-----|


  Q      E  Q    E  E  E     Q      E  Q    E  E  E   
--------------------------|--------------------------|
--------------------------|--------------------------|
------------5----------7--|------------5----------7--|
-------5g7-------7--------|-------5g7-------7--------|
--------------------9-----|--------------------9-----|
--------------------------|--------------------------|


  Q      E  Q    E  E  E     Q      E  Q    E  E  E       W                 
--------------------------|--------------------------||--------------------|
--------------------------|--------------------------||--------------------|
--------------------------|--------------------------||*-------------------|
------------5----------7--|------------5----------7--||*-------------------|
-------5g7-------7--------|-------5g7-------7--------||--------------------|
--------------------8-----|--------------------8-----||--------------------|


  W                   Q      E  Q.       E  E     Q      E  Q      E  Q       
-------------------|---------------------------|----------------------------||
-------------------|---------------------------|----------------------------||
-------------------|---------------------------|---------------------------*||
-------------------|------------5-----------5--|--L---------5---------5----*||
-------------------|-------5g7---------5g7-----|-------5g7-------5g7--------||
-------------------|---------------------------|----------------------------||


  W                   W                   W                   W                 
-------------------|-------------------|-------------------|-------------------|
-------------------|-------------------|-------------------|-------------------|
-------------------|-------------------|-------------------|-------------------|
-------------------|-------------------|-------------------|-------------------|
-------------------|-------------------|-------------------|-------------------|
-------------------|-------------------|-------------------|-------------------|


  W                   W                  
-------------------|-------------------||
-------------------|-------------------||
-------------------|-------------------||
-------------------|-------------------||
-------------------|-------------------||
-------------------|-------------------||

Gtr. 2                              



     E  E  H.              E  E  H.              E  E  H.            
E||---------------------|---------------------|---------------------|
B||---------------------|---------------------|---------------------|
G||---------------------|---------------------|---------------------|
D||--7--7---------------|--7--7---------------|--7--7---------------|
A||--7--7---------------|--7--7---------------|--7--7---------------|
E||--5--5---------------|--5--5---------------|--5--5---------------|


  E  E  H.              E  E  E  E  E  E  E  E     E  E  E  E  E  E  E  E   
---------------------|--------------------------|--------------------------|
---------------------|--------------------------|--------------------------|
---------------------|--------------------------|--------------------------|
--7--7---------------|--x--7--x--7--x--7--7--7--|--x--x--x--x--x--x--x--x--|
--7--7---------------|--x--7--x--7--x--7--7--7--|--x--x--x--x--x--x--x--x--|
--5--5---------------|--x--5--x--5--x--5--5--5--|--x--x--x--x--x--x--x--x--|


  E  E  E  E  E  E  E  E     E  E  E  E  E  E  E  E   
--------------------------|--------------------------|
--------------------------|--------------------------|
--------------------------|--------------------------|
--x--7--x--7--x--7--7--7--|--x--x--x--x--x--x--x--x--|
--x--7--x--7--x--7--7--7--|--x--x--x--x--x--x--x--x--|
--x--5--x--5--x--5--5--5--|--x--x--x--x--x--x--x--x--|


    E  E  E  E  E  E  E  E     E  E  E  E  E  E  E  E   
|---------------------------|--------------------------|
|---------------------------|--------------------------|
|*--------------------------|--------------------------|
|*--x--7--x--7--x--7--7--7--|--x--x--x--x--x--x--x--x--|
|---x--7--x--7--x--7--7--7--|--x--x--x--x--x--x--x--x--|
|---x--5--x--5--x--5--5--5--|--x--x--x--x--x--x--x--x--|


  E  E  E  E  E  E  E  E     E  E  E  E  E  E  E  E   
--------------------------|--------------------------|
--------------------------|--------------------------|
--------------------------|--------------------------|
--x--7--x--7--x--7--7--7--|--x--x--x--x--x--x--x--x--|
--x--7--x--7--x--7--7--7--|--x--x--x--x--x--x--x--x--|
--x--5--x--5--x--5--5--5--|--x--x--x--x--x--x--x--x--|


  E  E  E  E  E  E  E  E     E  E  E  E  E  E  Q       Q    H.            
--------------------------|-------------------------|--------------------|
--------------------------|-------------------------|--------------------|
--------------------------|-------------------------|--------------------|
--x--7--x--7--x--7--7--7--|--7--7--7--7--7--7-------|--7-----------------|
--x--7--x--7--x--7--7--7--|--7--7--7--7--7--7-------|--7-----------------|
--x--5--x--5--x--5--5--5--|--5--5--5--5--5--5--3----|--5-----------------|


  H        E  E  E  E     E  E  E  E  E  E  E  E     E  E  E  E  E  E  E  E   
-----------------------|--------------------------|--------------------------|
-----------------------|--------------------------|--------------------------|
--------------5--5--6--|--x--x--x--x--x--x--x--x--|--x--7--x--7--x--7--7--7--|
--------------5--5--6--|--x--x--x--x--x--x--x--x--|--x--7--x--7--x--7--7--7--|
--------------3--3--4--|--x--x--x--x--x--x--x--x--|--x--5--x--5--x--5--5--5--|
-----------------------|--------------------------|--------------------------|


  E  E  E  E  E  E  E  E     E  E  E  E  E  E  E  E   
--------------------------|--------------------------|
--------------------------|--------------------------|
--------------------------|--------------------------|
--x--x--x--x--x--x--x--x--|--x--7--x--7--x--7--7--7--|
--x--x--x--x--x--x--x--x--|--x--7--x--7--x--7--7--7--|
--x--x--x--x--x--x--x--x--|--x--5--x--5--x--5--5--5--|


  E  E  E  E  E  E  E  E     E  E  E  E  E  E  E  E   
--------------------------|--------------------------|
--------------------------|--------------------------|
--x--x--x--x--x--9--9--9--|--x--x--x--x--x--7--7--7--|
--x--x--x--x--x--9--9--9--|--x--x--x--x--x--7--7--7--|
--x--x--x--x--x--7--7--7--|--x--x--x--x--x--5--5--5--|
--------------------------|--------------------------|


  E  E  E  E  E  E  E  E     E  E  E  E  E  E  E  E     
--------------------------|---------------------------||
--------------------------|---------------------------||
--------------------------|--x--9--9--9--9--9--9--9--*||
--x--7--x--7--x--7--7--7--|--x--9--9--9--9--9--9--9--*||
--x--7--x--7--x--7--7--7--|--x--7--7--7--7--7--7--7---||
--x--5--x--5--x--5--5--5--|---------------------------||


  E  E  E  E  E  E  E  E     E  E  E  E  E  E  E  E   
--------------------------|--------------------------|
--------------------------|--------------------------|
--------------------------|--------------------------|
--x--x--x--x--x--x--x--x--|--x--7--x--7--x--7--7--7--|
--x--x--x--x--x--x--x--x--|--x--7--x--7--x--7--7--7--|
--x--x--x--x--x--x--x--x--|--x--5--x--5--x--5--5--5--|


  E  E  E  E  E  E  E  E     E  E  E  E  E  E  E  E   
--------------------------|--------------------------|
--------------------------|--------------------------|
--------------------------|--------------------------|
--x--x--x--x--x--x--x--x--|--x--7--x--7--x--7--7--7--|
--x--x--x--x--x--x--x--x--|--x--7--x--7--x--7--7--7--|
--x--x--x--x--x--x--x--x--|--x--5--x--5--x--5--5--5--|


  E  E  E  E  E  E  E  E     E  E  E  E  E  E  E  E   
--------------------------|--------------------------|
--------------------------|--------------------------|
--x--x--x--x--x--x--x--x--|--x--7--x--7--x--7--7--7--|
--x--x--x--x--x--x--x--x--|--x--7--x--7--x--7--7--7--|
--x--x--x--x--x--x--x--x--|--x--5--x--5--x--5--5--5--|
--------------------------|--------------------------|


  E  E  E  E  E  E  E  E     E  E  E  E  E  E  E  E   
--------------------------|--------------------------|
--------------------------|--------------------------|
--------------------------|--------------------------|
--x--x--x--x--x--x--x--x--|--x--7--x--7--x--7--7--7--|
--x--x--x--x--x--x--x--x--|--x--7--x--7--x--7--7--7--|
--x--x--x--x--x--x--x--x--|--x--5--x--5--x--5--5--5--|


  E  E  E  E  E  E  E  E     E  E  E  E  E  E  E  E   
--------------------------|--------------------------|
--------------------------|--------------------------|
--x--x--x--x--x--9--9--9--|--x--x--x--x--x--7--7--7--|
--x--x--x--x--x--9--9--9--|--x--x--x--x--x--7--7--7--|
--x--x--x--x--x--7--7--7--|--x--x--x--x--x--5--5--5--|
--------------------------|--------------------------|


  E  E  E  E  E  E  E  E     E  E  E  E  E  E  E  E   
--------------------------|--------------------------|
--------------------------|--------------------------|
--------------------------|--x--9--9--9--9--9--9--9--|
--x--7--x--7--x--7--L--7--|--x--9--9--9--9--9--9--9--|
--x--7--x--7--x--7--L--7--|--x--7--7--7--7--7--7--7--|
--x--5--x--5--x--5--L--5--|--------------------------|


  E  E  E  E  E  E  E  E     E  E  E  E  E  E  E  E   
--------------------------|--------------------------|
--------------------------|--------------------------|
--------------------------|--------------------------|
--7--7--7--7--7--7--7--7--|--7--7--7--7--7--7--7--7--|
--7--7--7--7--7--7--7--7--|--7--7--7--7--7--7--7--7--|
--5--5--5--5--5--5--5--5--|--5--5--5--5--5--5--5--5--|


  E  E  E  E  E  E  E  E     E  E  E  E  E  E  E  E   
--------------------------|--------------------------|
--------------------------|--------------------------|
--------------------------|--------------------------|
--7--7--7--7--7--7--7--7--|--7--7--7--7--7--7--7--7--|
--7--7--7--7--7--7--7--7--|--7--7--7--7--7--7--7--7--|
--5--5--5--5--5--5--5--5--|--5--5--5--5--5--5--5--5--|


  E  E  E  E  E  E  E  E     E  E  E  E  E  E  E  E   
--------------------------|--------------------------|
--------------------------|--------------------------|
--7--7--7--7--7--7--7--7--|--7--7--7--7--7--7--7--7--|
--7--7--7--7--7--7--7--7--|--7--7--7--7--7--7--7--7--|
--5--5--5--5--5--5--5--5--|--5--5--5--5--5--5--5--5--|
--------------------------|--------------------------|


  E  E  E  E  E  E  E  E     E  E  E  E  E  E  E  E   
--------------------------|--------------------------|
--------------------------|--------------------------|
--------------------------|--------------------------|
--7--7--7--7--7--7--7--7--|--7--7--7--7--7--7--7--7--|
--7--7--7--7--7--7--7--7--|--7--7--7--7--7--7--7--7--|
--5--5--5--5--5--5--5--5--|--5--5--5--5--5--5--5--5--|


  E  E  E  E  E  E  E  E     E  E  E  E  E  E  E  E   
--------------------------|--------------------------|
--------------------------|--------------------------|
--9--9--9--9--9--9--9--9--|--7--7--7--7--7--7--7--7--|
--9--9--9--9--9--9--9--9--|--7--7--7--7--7--7--7--7--|
--7--7--7--7--7--7--7--7--|--5--5--5--5--5--5--5--5--|
--------------------------|--------------------------|


  E  E  E  E  E  E  E  E     E  E  E  E  E  E  E  E     E  E  H.            
--------------------------|--------------------------|---------------------|
--------------------------|--------------------------|---------------------|
--------------------------|--x--9--9--9--9--9--9--9--|---------------------|
--7--7--7--7--7--7--7--7--|--x--9--9--9--9--9--9--9--|--7--7---------------|
--7--7--7--7--7--7--7--7--|--x--7--7--7--7--7--7--7--|--7--7---------------|
--5--5--5--5--5--5--5--5--|--------------------------|--5--5---------------|


  E  E  H.              E  E  H.              E  E  H.            
---------------------|---------------------|---------------------|
---------------------|---------------------|---------------------|
---------------------|---------------------|---------------------|
--7--7---------------|--7--7---------------|--7--7---------------|
--7--7---------------|--7--7---------------|--7--7---------------|
--5--5---------------|--5--5---------------|--5--5---------------|


  E  E  E  E  E  E  E  E     E  E  E  E  E  E  E  E   
--------------------------|--------------------------|
--------------------------|--------------------------|
--x--9--9--9--9--9--9--9--|--------------------------|
--x--9--9--9--9--9--9--9--|--x--7--x--7--x--7--7--7--|
--x--7--7--7--7--7--7--7--|--x--7--x--7--x--7--7--7--|
--------------------------|--x--5--x--5--x--5--5--5--|


  E  E  E  E  E  E  E  E     E  E  E  E  E  E  E  E   
--------------------------|--------------------------|
--------------------------|--------------------------|
--------------------------|--------------------------|
--x--7--x--7--x--7--7--7--|--x--7--x--7--x--7--7--7--|
--x--7--x--7--x--7--7--7--|--x--7--x--7--x--7--7--7--|
--x--5--x--5--x--5--5--5--|--x--5--x--5--x--5--5--5--|


  E  E  E  E  E  E  E  E     E  E  E  E  E  E  E  E   
--------------------------|--------------------------|
--------------------------|--------------------------|
--------------------------|--x--7--x--7--x--7--7--7--|
--x--7--x--7--x--7--7--7--|--x--7--x--7--x--7--7--7--|
--x--7--x--7--x--7--7--7--|--x--5--x--5--x--5--5--5--|
--x--5--x--5--x--5--5--5--|--------------------------|


  E  E  E  E  E  E  E  E     E  E  E  E  E  E  E  E   
--------------------------|--------------------------|
--------------------------|--------------------------|
--x--7--x--7--x--7--7--7--|--------------------------|
--x--7--x--7--x--7--7--7--|--x--7--x--7--x--7--7--7--|
--x--5--x--5--x--5--5--5--|--x--7--x--7--x--7--7--7--|
--------------------------|--x--5--x--5--x--5--5--5--|


  E  E  E  E  E  E  E  E       E  E  E  E  E  E  E  E   
--------------------------||---------------------------|
--------------------------||---------------------------|
--------------------------||*--9--9--9--9--9--9--9--9--|
--x--7--x--7--x--7--7--7--||*--9--9--9--9--9--9--9--9--|
--x--7--x--7--x--7--7--7--||---7--7--7--7--7--7--7--7--|
--x--5--x--5--x--5--5--5--||---------------------------|


  E  E  E  E  E  E  E  E     E  E  E  E  E  E  E  E   
--------------------------|--------------------------|
--------------------------|--------------------------|
--7--7--7--7--7--7--7--7--|--------------------------|
--7--7--7--7--7--7--7--7--|--x--7--x--7--x--7--7--7--|
--5--5--5--5--5--5--5--5--|--x--7--x--7--x--7--7--7--|
--------------------------|--x--5--x--5--x--5--5--5--|


  E  E  E  E  E  E  E  E       E  E  E  E  E  E  E  E   
---------------------------||--------------------------|
---------------------------||--------------------------|
--------------------------*||--9--9--9--9--9--9--9--9--|
--x--7--x--7--x--7--7--7--*||--9--9--9--9--9--9--9--9--|
--x--7--x--7--x--7--7--7---||--7--7--7--7--7--7--7--7--|
--x--5--x--5--x--5--5--5---||--------------------------|


  E  E  E  E  E  E  E  E     E   E   E   E   E  E  E  E   
--------------------------|------------------------------|
--------------------------|------------------------------|
--7--7--7--7--7--7--7--7--|------9---9---8---8--7--7--6--|
--7--7--7--7--7--7--7--7--|--7--11--11--10--10--9--9--7--|
--5--5--5--5--5--5--5--5--|--7---------------------------|
--------------------------|--5---------------------------|


  Q    Q    Q    Q       H        H           Q    H.             
----------------------|--------------------|--------------------||
----------------------|--------------------|--------------------||
--6---------6----6----|--6--------L--------|--6-----------------||
--7---------7----7----|--7--------L--------|--7-----------------||
------------7----7----|--7--------L--------|--7-----------------||
------------5----5----|--5--------L--------|--5-----------------||





Gtr. 3
                               
     W                   W                   W                 
E||-------------------|-------------------|-------------------|
B||-------------------|-------------------|-------------------|
G||-------------------|-------------------|-------------------|
D||-------------------|-------------------|-------------------|
A||-------------------|-------------------|-------------------|
E||-------------------|-------------------|-------------------|


  W                   W                   W                   W                 
-------------------|-------------------|-------------------|-------------------|
-------------------|-------------------|-------------------|-------------------|
-------------------|-------------------|-------------------|-------------------|
-------------------|-------------------|-------------------|-------------------|
-------------------|-------------------|-------------------|-------------------|
-------------------|-------------------|-------------------|-------------------|


  W                     W                   W                 
-------------------||--------------------|-------------------|
-------------------||--------------------|-------------------|
-------------------||*-------------------|-------------------|
-------------------||*-------------------|-------------------|
-------------------||--------------------|-------------------|
-------------------||--------------------|-------------------|


  W                   W                   W                   W                 
-------------------|-------------------|-------------------|-------------------|
-------------------|-------------------|-------------------|-------------------|
-------------------|-------------------|-------------------|-------------------|
-------------------|-------------------|-------------------|-------------------|
-------------------|-------------------|-------------------|-------------------|
-------------------|-------------------|-------------------|-------------------|


  W                   W                   W                   W                 
-------------------|-------------------|-------------------|-------------------|
-------------------|-------------------|-------------------|-------------------|
-------------------|-------------------|-------------------|-------------------|
-------------------|-------------------|-------------------|-------------------|
-------------------|-------------------|-------------------|-------------------|
-------------------|-------------------|-------------------|-------------------|


  W                   W                   W                   W                 
-------------------|-------------------|-------------------|-------------------|
-------------------|-------------------|-------------------|-------------------|
-------------------|-------------------|-------------------|-------------------|
-------------------|-------------------|-------------------|-------------------|
-------------------|-------------------|-------------------|-------------------|
-------------------|-------------------|-------------------|-------------------|


  W                   W                     W                 
-------------------|--------------------||-------------------|
-------------------|--------------------||-------------------|
-------------------|-------------------*||-------------------|
-------------------|-------------------*||-------------------|
-------------------|--------------------||-------------------|
-------------------|--------------------||-------------------|


  W                   W                   W                   W                 
-------------------|-------------------|-------------------|-------------------|
-------------------|-------------------|-------------------|-------------------|
-------------------|-------------------|-------------------|-------------------|
-------------------|-------------------|-------------------|-------------------|
-------------------|-------------------|-------------------|-------------------|
-------------------|-------------------|-------------------|-------------------|


  W                   W                   W                   W                 
-------------------|-------------------|-------------------|-------------------|
-------------------|-------------------|-------------------|-------------------|
-------------------|-------------------|-------------------|-------------------|
-------------------|-------------------|-------------------|-------------------|
-------------------|-------------------|-------------------|-------------------|
-------------------|-------------------|-------------------|-------------------|


  W                   W                   H.           Q      
-------------------|-------------------|---------------------|
-------------------|-------------------|---------------------|
-------------------|-------------------|---------------2S----|
-------------------|-------------------|---------------2S----|
-------------------|-------------------|---------------------|
-------------------|-------------------|---------------------|


   E   E   E    E   E   E    E   E      Q      E   Q.     E  E   
------------------------------------|---------------------------|
------------------------------------|---------------------------|
--14--14--14--/14--14--14--/14--14--|--14\--------12------9--7--|
--14--14--14--/14--14--14--/14--14--|--14\----10----------------|
------------------------------------|---------------------------|
------------------------------------|---------------------------|


                           \1                  
  H.           Q        E  E  E  H         E   
---------------------|------------------------|
--5------------L-----|--L---------------------|
--5------------Lb----|--L-----------------12--|
---------------------|-----7--L--7------------|
---------------------|------------------------|
---------------------|------------------------|


   E    E   E   E    E   E   E    E      E   E    E   E   E    Q     E   
-------10--10-------10---L-------10--|---L-------10---L-------10----10--|
-------10--10-------10---L-------10--|---L-------10---L-------10----10--|
---Lb----------12b----------12b------|------12b----------12b------------|
-------------------------------------|----------------------------------|
-------------------------------------|----------------------------------|
-------------------------------------|----------------------------------|


   Q     Q      Q      Q         Q      Q      Q      Q      
-----------------------------|------------------------------|
--13----13b----13b----13b----|--13b----13b----13b----13b----|
-----------------------------|------------------------------|
-----------------------------|------------------------------|
-----------------------------|------------------------------|
-----------------------------|------------------------------|


    Q     E    Q     E    E   E      E    E   E   E   Q      E   E   
---------15---------15-------15--|--15-------15--15-----------------|
--/17--------/17----17--/17------|------/17----------17\----13------|
---------------------------------|------------------------------14--|
---------------------------------|------------------------------14--|
---------------------------------|----------------------------------|
---------------------------------|----------------------------------|


   Q     E    E   Q     E   E      Q     Q     H            W                 
-------------------------------|-------------------------|-------------------|
-------------------------------|-------------------------|-------------------|
---L----14--/14--14----14--12--|---L----12\----5\--------|-------------------|
---L----14--/14--14----14------|---------------5\--------|-------------------|
-------------------------------|---------------7\--------|-------------------|
-------------------------------|-------------------------|-------------------|


  W                   W                   W                   W                 
-------------------|-------------------|-------------------|-------------------|
-------------------|-------------------|-------------------|-------------------|
-------------------|-------------------|-------------------|-------------------|
-------------------|-------------------|-------------------|-------------------|
-------------------|-------------------|-------------------|-------------------|
-------------------|-------------------|-------------------|-------------------|


  W                   W                   W                   W                 
-------------------|-------------------|-------------------|-------------------|
-------------------|-------------------|-------------------|-------------------|
-------------------|-------------------|-------------------|-------------------|
-------------------|-------------------|-------------------|-------------------|
-------------------|-------------------|-------------------|-------------------|
-------------------|-------------------|-------------------|-------------------|


  W                   W                   W                   W                 
-------------------|-------------------|-------------------|-------------------|
-------------------|-------------------|-------------------|-------------------|
-------------------|-------------------|-------------------|-------------------|
-------------------|-------------------|-------------------|-------------------|
-------------------|-------------------|-------------------|-------------------|
-------------------|-------------------|-------------------|-------------------|


    W                   W                   W                 
|--------------------|-------------------|-------------------|
|--------------------|-------------------|-------------------|
|*-------------------|-------------------|-------------------|
|*-------------------|-------------------|-------------------|
|--------------------|-------------------|-------------------|
|--------------------|-------------------|-------------------|


  W                     W                   W                 
--------------------||-------------------|-------------------|
--------------------||-------------------|-------------------|
-------------------*||-------------------|-------------------|
-------------------*||-------------------|-------------------|
--------------------||-------------------|-------------------|
--------------------||-------------------|-------------------|


  W                   W                   W                 
-------------------|-------------------|-------------------|
-------------------|-------------------|-------------------|
-------------------|-------------------|-------------------|
-------------------|-------------------|-------------------|
-------------------|-------------------|-------------------|
-------------------|-------------------|-------------------|


  W                  
-------------------||
-------------------||
-------------------||
-------------------||
-------------------||
-------------------||




Duration Legend
---------------
W - whole
H - half
Q - quarter
E - 8th
S - 16th
T - 32nd
X - 64th
. - note dotted
|-n-|  - n-tuplets


Tablature Legend
----------------
L - tied note
x - dead note
g - grace note
(n) - ghost note
> - accentuded note
NH - natural harmonic
AH - artificial harmonic
TH - tapped harmonic
SH - semi harmonic
PH - pitch harmonic
h - hammer on
p - pull off
b - bend
br - bendRelease
pb - preBend
pbr - preBendRelease
brb - bendReleaseBend
\n/ - tremolo bar dip
\n - tremolo bar dive
-/n - tremolo bar Release up
/n\ - tremolo bar inverted dip
/n - tremolo bar return
-\n - tremolo bar Release down
S - shift slide
s - legato slide
/ -  slide into from below or out of upwards
\ -  slide into from above or out of downwards
~ - vibrato
W - wide vibrato
tr - trill
TP - tremolo picking
T - tapping
S - slap
P - pop
< - fade in
^ - brush up
v - brush down




Tap to rate this tab
 
# A B C D E F G H I J K L M N O P Q R S T U V W X Y Z