Song name
# A B C D E F G H I J K L M N O P Q R S T U V W X Y Z

Hurriganes - Talkin Bout You tab

Hurriganes- Talkin' Bout You

Tabbed by larmo

Gtr.1                                  
     W                   E   E  E  Q.     E  E     Q     Q      
E||-------------------|-------------------------|--------------|
B||-------------------|-------------------------|--------------|
G||-------------------|------------7------------|--------------|
D||-------------------|------------7------------|--------------|
A||-------------------|-----/6--9---------9--7--|--5~----5~----|
E||--7----------------|--7----------------------|--------------|


    PM PM    PM PM    PM       PM PM    PM PM    PM     
    E  E  E  E  E  E  E  E     E  E  E  E  E  E  E  E   
|---------------------------|--------------------------|
|---------------------------|--------------------------|
|*--------------------------|--------------------------|
|*--------9--------9-----9--|--------9--------9-----9--|
|---------9--------9-----9--|--------9--------9-----9--|
|---7--7--7--7--7--7--7--7--|--7--7--7--7--7--7--7--7--|


  PM PM    PM PM    PM       PM PM    PM PM    PM     
  E  E  E  E  E  E  E  E     E  E  E  E  E  E  E  E   
--------------------------|--------------------------|
--------------------------|--------------------------|
--------------------------|--------------------------|
--------9--------9-----9--|--------9--------9-----9--|
--------9--------9-----9--|--------9--------9-----9--|
--7--7--7--7--7--7--7--7--|--7--7--7--7--7--7--7--7--|


  PM PM    PM PM    PM       PM PM    PM PM    PM                          
  E  E  E  E  E  E  E  E     E  E  E  E  E  E  E  E     Q    H.            
--------------------------|--------------------------|--------------------|
--------------------------|--------------------------|--------------------|
--------------------------|--------------------------|--------------------|
--------9--------9-----9--|--------9--------9-----9--|--9-----------------|
--------9--------9-----9--|--------9--------9-----9--|--9-----------------|
--7--7--7--7--7--7--7--7--|--7--7--7--7--7--7--7--7--|--7-----------------|


                       PM PM    PM PM    PM       PM PM    PM PM    PM     
  Q    H.              E  E  E  E  E  E  E  E     E  E  E  E  E  E  E  E   
--------------------|--------------------------|--------------------------|
--------------------|--------------------------|--------------------------|
--------------------|--------------------------|--------------------------|
--9-----------------|--------9--------9-----9--|--------9--------9-----9--|
--9-----------------|--------9--------9-----9--|--------9--------9-----9--|
--7-----------------|--7--7--7--7--7--7--7--7--|--7--7--7--7--7--7--7--7--|


  PM PM    PM PM    PM       PM PM    PM PM    PM     
  E  E  E  E  E  E  E  E     E  E  E  E  E  E  E  E   
--------------------------|--------------------------|
--------------------------|--------------------------|
--------------------------|--------------------------|
--------9--------9-----9--|--------9--------9-----9--|
--------9--------9-----9--|--------9--------9-----9--|
--7--7--7--7--7--7--7--7--|--7--7--7--7--7--7--7--7--|


  PM PM    PM PM    PM       PM PM    PM PM                                 
  E  E  E  E  E  E  E  E     E  E  E  E  E  E  E  E      Q    H.            
--------------------------|--------------------------|---------------------|
--------------------------|--------------------------|---------------------|
--------9--------9-----9--|--------9--------9--9--9--|--11-----------------|
--------9--------9-----9--|--------9--------9--9--9--|--11-----------------|
--7--7--7--7--7--7--7--7--|--7--7--7--7--7--7--7--7--|---9-----------------|
--------------------------|--------------------------|---------------------|


                        PM PM    PM PM    PM       PM PM    PM PM    PM     
  W                     E  E  E  E  E  E  E  E     E  E  E  E  E  E  E  E   
--------------------||--------------------------|--------------------------|
--------------------||--------------------------|--------------------------|
-------------------*||--------------------------|--------------------------|
-------------------*||--------9--------9-----9--|--------9--------9-----9--|
--------------------||--------9--------9-----9--|--------9--------9-----9--|
--------------------||--7--7--7--7--7--7--7--7--|--7--7--7--7--7--7--7--7--|


  PM PM    PM PM    PM       PM PM    PM PM    PM     
  E  E  E  E  E  E  E  E     E  E  E  E  E  E  E  E   
--------------------------|--------------------------|
--------------------------|--------------------------|
--------------------------|--------------------------|
--------9--------9-----9--|--------9--------9-----9--|
--------9--------9-----9--|--------9--------9-----9--|
--7--7--7--7--7--7--7--7--|--7--7--7--7--7--7--7--7--|


  PM PM    PM PM    PM       PM PM    PM PM    PM     
  E  E  E  E  E  E  E  E     E  E  E  E  E  E  E  E   
--------------------------|--------------------------|
--------------------------|--------------------------|
--------9--------9-----9--|--------9--------9-----9--|
--------9--------9-----9--|--------9--------9-----9--|
--7--7--7--7--7--7--7--7--|--7--7--7--7--7--7--7--7--|
--------------------------|--------------------------|


  PM PM    PM PM    PM       PM PM    PM PM    PM     
  E  E  E  E  E  E  E  E     E  E  E  E  E  E  E  E   
--------------------------|--------------------------|
--------------------------|--------------------------|
--------------------------|--------------------------|
--------9--------9-----9--|--------9--------9-----9--|
--------9--------9-----9--|--------9--------9-----9--|
--7--7--7--7--7--7--7--7--|--7--7--7--7--7--7--7--7--|


  PM PM     PM PM     PM        PM PM    PM PM    PM     
  E  E   E  E  E   E  E   E     E  E  E  E  E  E  E  E   
-----------------------------|--------------------------|
-----------------------------|--------------------------|
--------11--------11-----11--|--------9--------9-----9--|
--------11--------11-----11--|--------9--------9-----9--|
--9--9---9--9--9---9--9---9--|--7--7--7--7--7--7--7--7--|
-----------------------------|--------------------------|


  PM PM    PM PM    PM                                       
  E  E  E  E  E  E  E  E     E   E   E   E   E   E   E   E   
--------------------------|---------------------------------|
--------------------------|---------------------------------|
--------------------------|---------------------------------|
--------9--------9-----9--|-----11--11--11--11--11--11--11--|
--------9--------9-----9--|------9---9---9---9---9---9---9--|
--7--7--7--7--7--7--7--7--|---------------------------------|


  PM PM    PM PM    PM       PM PM    PM PM    PM     
  E  E  E  E  E  E  E  E     E  E  E  E  E  E  E  E   
--------------------------|--------------------------|
--------------------------|--------------------------|
--------------------------|--------------------------|
--------9--------9-----9--|--------9--------9-----9--|
--------9--------9-----9--|--------9--------9-----9--|
--7--7--7--7--7--7--7--7--|--7--7--7--7--7--7--7--7--|


  PM PM    PM PM    PM       PM PM    PM PM    PM     
  E  E  E  E  E  E  E  E     E  E  E  E  E  E  E  E   
--------------------------|--------------------------|
--------------------------|--------------------------|
--------------------------|--------------------------|
--------9--------9-----9--|--------9--------9-----9--|
--------9--------9-----9--|--------9--------9-----9--|
--7--7--7--7--7--7--7--7--|--7--7--7--7--7--7--7--7--|


  PM PM    PM PM    PM       PM PM    PM PM    PM     
  E  E  E  E  E  E  E  E     E  E  E  E  E  E  E  E   
--------------------------|--------------------------|
--------------------------|--------------------------|
--------9--------9-----9--|--------9--------9-----9--|
--------9--------9-----9--|--------9--------9-----9--|
--7--7--7--7--7--7--7--7--|--7--7--7--7--7--7--7--7--|
--------------------------|--------------------------|


  PM PM    PM PM    PM       PM PM    PM PM    PM     
  E  E  E  E  E  E  E  E     E  E  E  E  E  E  E  E   
--------------------------|--------------------------|
--------------------------|--------------------------|
--------------------------|--------------------------|
--------9--------9-----9--|--------9--------9-----9--|
--------9--------9-----9--|--------9--------9-----9--|
--7--7--7--7--7--7--7--7--|--7--7--7--7--7--7--7--7--|


  PM PM     PM PM     PM        PM PM    PM PM    PM     
  E  E   E  E  E   E  E   E     E  E  E  E  E  E  E  E   
-----------------------------|--------------------------|
-----------------------------|--------------------------|
--------11--------11-----11--|--------9--------9-----9--|
--------11--------11-----11--|--------9--------9-----9--|
--9--9---9--9--9---9--9---9--|--7--7--7--7--7--7--7--7--|
-----------------------------|--------------------------|


  PM PM    PM PM    PM                                       
  E  E  E  E  E  E  E  E     E   E   E   E   E   E   E   E   
--------------------------|---------------------------------|
--------------------------|---------------------------------|
--------------------------|---------------------------------|
--------9--------9-----9--|-----11--11--11--11--11--11--11--|
--------9--------9-----9--|------9---9---9---9---9---9---9--|
--7--7--7--7--7--7--7--7--|---------------------------------|


  PM PM    PM PM    PM       PM PM    PM PM    PM     
  E  E  E  E  E  E  E  E     E  E  E  E  E  E  E  E   
--------------------------|--------------------------|
--------------------------|--------------------------|
--------------------------|--------------------------|
--------9--------9-----9--|--------9--------9-----9--|
--------9--------9-----9--|--------9--------9-----9--|
--7--7--7--7--7--7--7--7--|--7--7--7--7--7--7--7--7--|


  PM PM    PM PM    PM       PM PM    PM PM    PM     
  E  E  E  E  E  E  E  E     E  E  E  E  E  E  E  E   
--------------------------|--------------------------|
--------------------------|--------------------------|
--------------------------|--------------------------|
--------9--------9-----9--|--------9--------9-----9--|
--------9--------9-----9--|--------9--------9-----9--|
--7--7--7--7--7--7--7--7--|--7--7--7--7--7--7--7--7--|


  PM PM    PM PM    PM       PM PM    PM PM    PM                          
  E  E  E  E  E  E  E  E     E  E  E  E  E  E  E  E     Q    H.            
--------------------------|--------------------------|--------------------|
--------------------------|--------------------------|--------------------|
--------------------------|--------------------------|--------------------|
--------9--------9-----9--|--------9--------9-----9--|--9-----------------|
--------9--------9-----9--|--------9--------9-----9--|--9-----------------|
--7--7--7--7--7--7--7--7--|--7--7--7--7--7--7--7--7--|--7-----------------|


                       PM PM    PM PM    PM       PM PM    PM PM    PM     
  Q    H.              E  E  E  E  E  E  E  E     E  E  E  E  E  E  E  E   
--------------------|--------------------------|--------------------------|
--------------------|--------------------------|--------------------------|
--------------------|--------------------------|--------------------------|
--9-----------------|--------9--------9-----9--|--------9--------9-----9--|
--9-----------------|--------9--------9-----9--|--------9--------9-----9--|
--7-----------------|--7--7--7--7--7--7--7--7--|--7--7--7--7--7--7--7--7--|


  PM PM    PM PM    PM       PM PM    PM PM    PM     
  E  E  E  E  E  E  E  E     E  E  E  E  E  E  E  E   
--------------------------|--------------------------|
--------------------------|--------------------------|
--------------------------|--------------------------|
--------9--------9-----9--|--------9--------9-----9--|
--------9--------9-----9--|--------9--------9-----9--|
--7--7--7--7--7--7--7--7--|--7--7--7--7--7--7--7--7--|


  PM PM    PM PM    PM       PM PM    PM PM                                 
  E  E  E  E  E  E  E  E     E  E  E  E  E  E  E  E      Q    H.            
--------------------------|--------------------------|---------------------|
--------------------------|--------------------------|---------------------|
--------9--------9-----9--|--------9--------9--9--9--|--11-----------------|
--------9--------9-----9--|--------9--------9--9--9--|--11-----------------|
--7--7--7--7--7--7--7--7--|--7--7--7--7--7--7--7--7--|---9-----------------|
--------------------------|--------------------------|---------------------|


                      PM PM    PM PM    PM       PM PM    PM PM    PM     
  W                   E  E  E  E  E  E  E  E     E  E  E  E  E  E  E  E   
-------------------|--------------------------|--------------------------|
-------------------|--------------------------|--------------------------|
-------------------|--------------------------|--------------------------|
-------------------|--------9--------9-----9--|--------9--------9-----9--|
-------------------|--------9--------9-----9--|--------9--------9-----9--|
-------------------|--7--7--7--7--7--7--7--7--|--7--7--7--7--7--7--7--7--|


  PM PM    PM PM    PM       PM PM    PM PM    PM     
  E  E  E  E  E  E  E  E     E  E  E  E  E  E  E  E   
--------------------------|--------------------------|
--------------------------|--------------------------|
--------------------------|--------------------------|
--------9--------9-----9--|--------9--------9-----9--|
--------9--------9-----9--|--------9--------9-----9--|
--7--7--7--7--7--7--7--7--|--7--7--7--7--7--7--7--7--|


  PM PM    PM PM    PM       PM PM    PM PM           
  E  E  E  E  E  E  E  E     E  E  E  E  E  E  E  E   
--------------------------|--------------------------|
--------------------------|--------------------------|
--------9--------9-----9--|--------9--------9--9--9--|
--------9--------9-----9--|--------9--------9--9--9--|
--7--7--7--7--7--7--7--7--|--7--7--7--7--7--7--7--7--|
--------------------------|--------------------------|


  PM PM    PM PM    PM       PM PM    PM PM    PM     
  E  E  E  E  E  E  E  E     E  E  E  E  E  E  E  E   
--------------------------|--------------------------|
--------------------------|--------------------------|
--------------------------|--------------------------|
--------9--------9-----9--|--------9--------9-----9--|
--------9--------9-----9--|--------9--------9-----9--|
--7--7--7--7--7--7--7--7--|--7--7--7--7--7--7--7--7--|


  PM PM     PM PM     PM        PM PM    PM PM    PM                          
  E  E   E  E  E   E  E   E     E  E  E  E  E  E  E  E     W                  
-----------------------------|--------------------------|-------------------||
-----------------------------|--------------------------|-------------------||
--------11--------11-----11--|--------9--------9-----9--|-------------------||
--------11--------11-----11--|--------9--------9-----9--|-------------------||
--9--9---9--9--9---9--9---9--|--7--7--7--7--7--7--7--7--|-------------------||
-----------------------------|--------------------------|-------------------||




Gtr.2                                 

     W                   W                   H             W                 
E||-------------------|-------------------|-----------||--------------------|
B||-------------------|-------------------|-----------||--------------------|
G||-------------------|-------------------|-----------||*-------------------|
D||-------------------|-------------------|-----------||*-------------------|
A||-------------------|-------------------|-----------||--------------------|
E||-------------------|-------------------|-----------||--------------------|


  W                   W                   W                   W                 
-------------------|-------------------|-------------------|-------------------|
-------------------|-------------------|-------------------|-------------------|
-------------------|-------------------|-------------------|-------------------|
-------------------|-------------------|-------------------|-------------------|
-------------------|-------------------|-------------------|-------------------|
-------------------|-------------------|-------------------|-------------------|


  W                   W                   W                   W                 
-------------------|-------------------|-------------------|-------------------|
-------------------|-------------------|-------------------|-------------------|
-------------------|-------------------|-------------------|-------------------|
-------------------|-------------------|-------------------|-------------------|
-------------------|-------------------|-------------------|-------------------|
-------------------|-------------------|-------------------|-------------------|


  W                   W                   W                   W                 
-------------------|-------------------|-------------------|-------------------|
-------------------|-------------------|-------------------|-------------------|
-------------------|-------------------|-------------------|-------------------|
-------------------|-------------------|-------------------|-------------------|
-------------------|-------------------|-------------------|-------------------|
-------------------|-------------------|-------------------|-------------------|


  W                   W                   W                   
-------------------|-------------------|--------------------||
-------------------|-------------------|--------------------||
-------------------|-------------------|-------------------*||
-------------------|-------------------|-------------------*||
-------------------|-------------------|--------------------||
-------------------|-------------------|--------------------||


  H.           E  E     E  E  E  E  E  E  E  E     H.           E  E   
---------------------|--------------------------|---------------------|
--7------------------|-----------------------7--|--L------------------|
--7------------------|--------7--9--9--9--9--7--|--L------------------|
---------------9-----|--7--9-----9--9--9--9-----|---------------9-----|
------------------9--|--------------------------|------------------9--|
---------------------|--------------------------|---------------------|


  E  E  E  E  E  E  E  E     E    E  E  E    E  E  E    E   
--------------------------|--------------------------------|
--------------------------|--9----L--7--9----L--7--9----L--|
--------7--9--9--9--7--9--|--9br--L--7--9br--L--7--9br--L--|
--7--9-----9--9--9-----9--|--------------------------------|
--------------------------|--------------------------------|
--------------------------|--------------------------------|


  E  E    E  E  E    E  E  E     Q    E  E  Q    E  E   
------------------------------|------------------------|
--7--9----L--7--9----L--7--9--|--7---------------------|
--7--9br--L--7--9br--L--7--9--|--7---------------7--9--|
------------------------------|-------9--7--9----------|
------------------------------|------------------------|
------------------------------|------------------------|


             W                                        
  E   E  E   Q.     E  E      E  E  E  Q    E  E  E   
------7--7----------7-----|--------------------------|
------------10---------7--|--10--9--7--7----7--9--7--|
--9b----------------------|--------------------------|
--------------------------|--------------------------|
--------------------------|--------------------------|
--------------------------|--------------------------|


   Q.       Q.      E  E      E   E   E   E   E   E   E  E   
--10~------10~------7-----|-----------7-----------7---------|
-----------------------7--|--10---Lb-----10---Lb-----10--7--|
--------------------------|---------------------------------|
--------------------------|---------------------------------|
--------------------------|---------------------------------|
--------------------------|---------------------------------|


  S S E  E  Q    Q    E      H          H          
-------------------------|------------------------|
--9-7----7--7----7-------|-------------15~--------|
------9------------------|--16~-------------------|
-------------------------|------------------------|
-------------------------|------------------------|
-------------------------|------------------------|


   Q     E   E   E   E   E   E      E   E   E   Q      E     E     E     
--------------------------------|---------------------------------------|
---L--------------------15------|--17--17--15--17b----17pb--17pb--17pb--|
--------16------14--16------16--|---------------------------------------|
------------16------------------|---------------------------------------|
--------------------------------|---------------------------------------|
--------------------------------|---------------------------------------|


   E     E   E   E   Q      E   E         E   E   E   Q      E   E   E   
-----------------------------------|------------------------------------|
--17br---L--15--17--15~------------|---------12------12~----12--14--12--|
---------------------------16------|--12g13------13---------------------|
-------------------------------16--|------------------------------------|
-----------------------------------|------------------------------------|
-----------------------------------|------------------------------------|


   E   E   E   Q      E   E   E      E   E    E   E   E    E   E   E    
---------------------------------|-----------14-----------14-----------|
--15--14--12--12~----12--14--12--|--15---Lb------15---Lb------16---Lb--|
---------------------------------|-------------------------------------|
---------------------------------|-------------------------------------|
---------------------------------|-------------------------------------|
---------------------------------|-------------------------------------|


   E   E    E    E   E    E   E   E    
--14------------14-------14--17-------|
------16b---Lb------17b----------17b--|
--------------------------------------|
--------------------------------------|
--------------------------------------|
--------------------------------------|


   E    S  S  E    E   S  S  E    E   S  S  
-------17-14------14--17-14------14--17-14-|
--17b--------17b------------17b------------|
-------------------------------------------|
-------------------------------------------|
-------------------------------------------|
-------------------------------------------|


   E    E   S  S  E    E   S  S  E    E      E   E   E   E   E   E   E   E    
-------14--17-14------14--17-14------14--|-----------------------------------|
--17b------------17b------------17b------|--17--18--17--15--17------15---Lb--|
-----------------------------------------|----------------------16-----------|
-----------------------------------------|-----------------------------------|
-----------------------------------------|-----------------------------------|
-----------------------------------------|-----------------------------------|


   E   E   E    E   E   E    Q        W                   W                 
--14-----------14-----------14\----|-------------------|-------------------|
------15---Lb------15---Lb---------|-------------------|-------------------|
-----------------------------------|-------------------|-------------------|
-----------------------------------|-------------------|-------------------|
-----------------------------------|-------------------|-------------------|
-----------------------------------|-------------------|-------------------|


  W                   W                   W                   W                 
-------------------|-------------------|-------------------|-------------------|
-------------------|-------------------|-------------------|-------------------|
-------------------|-------------------|-------------------|-------------------|
-------------------|-------------------|-------------------|-------------------|
-------------------|-------------------|-------------------|-------------------|
-------------------|-------------------|-------------------|-------------------|


  W                   W                   Q    Q    E  Q    E   
-------------------|-------------------|-------7---------------|
-------------------|-------------------|-------7-------7----7--|
-------------------|-------------------|------------9--7----8--|
-------------------|-------------------|-----------------------|
-------------------|-------------------|-----------------------|
-------------------|-------------------|-----------------------|


  Q    E  Q    E  E  E     Q    Q    E  Q    E     Q    E  Q    E  E  E   
-------7-------7-----7--|-------7---------------|-------7-------7-----7--|
-------7-------7-----7--|-------7-------7----7--|-------7-------7-----7--|
------------------------|------------9--7----8--|------------------------|
--9---------------------|-----------------------|--9---------------------|
------------------------|-----------------------|------------------------|
------------------------|-----------------------|------------------------|


  Q     Q     E   Q     E      Q     E  Q     E   Q        Q    H.            
-------12------------------|--------12-------12--12----|--14-----------------|
-------12--------12----12--|--------12-------12--12----|--14-----------------|
-------------14--12----13--|---------------------------|---------------------|
---------------------------|--14-----------------------|---------------------|
---------------------------|---------------------------|---------------------|
---------------------------|---------------------------|---------------------|


  W                   Q    Q    E  Q    E     Q    E  Q    E  E  E   
-------------------|-------7---------------|-------7-------7-----7--|
-------------------|-------7-------7----7--|-------7-------7-----7--|
-------------------|------------9--7----8--|------------------------|
-------------------|-----------------------|--9---------------------|
-------------------|-----------------------|------------------------|
-------------------|-----------------------|------------------------|


  Q    Q    E  Q    E     Q    E  Q    E  E  E     Q     Q     E   Q     E   
-----------------------|-------7-------7-----7--|---------------------------|
---------------7----7--|-------7-------7-----7--|-----------------12----12--|
-------9----9--7----8--|------------------------|-------14----14--12----13--|
-----------------------|--9---------------------|---------------------------|
-----------------------|------------------------|---------------------------|
-----------------------|------------------------|---------------------------|


   Q     E  Q     E  E   E     Q    Q    E  Q    E     Q    E  Q    E  E  E   
--------12-------12-----12--|-------7---------------|-------7-------7-----7--|
--------12-------12-----12--|-------7-------7----7--|-------7-------7-----7--|
----------------------------|------------9--7----8--|------------------------|
--14------------------------|-----------------------|--9---------------------|
----------------------------|-----------------------|------------------------|
----------------------------|-----------------------|------------------------|


  Q     Q     E   Q     E      Q     Q     E   Q     E      W                   
-------14------------------|--------12------------------|---------------------||
-------14--------14----14--|--------12--------12----12--|---------------------||
-------------16--14----15--|--------------14--12----13--|--14b----------------||
---------------------------|--16------------------------|---------------------||
---------------------------|----------------------------|---------------------||
---------------------------|----------------------------|---------------------||




Duration Legend
---------------
W - whole
H - half
Q - quarter
E - 8th
S - 16th
T - 32nd
X - 64th
. - note dotted
|-n-|  - n-tuplets


Tablature Legend
----------------
L - tied note
x - dead note
g - grace note
(n) - ghost note
> - accentuded note
NH - natural harmonic
AH - artificial harmonic
TH - tapped harmonic
SH - semi harmonic
PH - pitch harmonic
h - hammer on
p - pull off
b - bend
br - bendRelease
pb - preBend
pbr - preBendRelease
brb - bendReleaseBend
\n/ - tremolo bar dip
\n - tremolo bar dive
-/n - tremolo bar Release up
/n\ - tremolo bar inverted dip
/n - tremolo bar return
-\n - tremolo bar Release down
S - shift slide
s - legato slide
/ -  slide into from below or out of upwards
\ -  slide into from above or out of downwards
~ - vibrato
W - wide vibrato
tr - trill
TP - tremolo picking
T - tapping
S - slap
P - pop
< - fade in
^ - brush up
v - brush down
Tap to rate this tab
# A B C D E F G H I J K L M N O P Q R S T U V W X Y Z