Song name
# A B C D E F G H I J K L M N O P Q R S T U V W X Y Z

Hurriganes - An Awful Crime tab

Help us improve GuitareTab! Take a short survey!
intro
e|-------------------------------------------------------------------------------|
b|----12b14~~~--12b14--12-10-7-7---12b14-12-10-12-10---12b14--12-10-9------------|
g|-------------------------------------------------------------------------------|
d|-------------------------------------------------------------------------------|
a|-------------------------------------------------------------------------------|
E|-------------------------------------------------------------------------------|

Verse
acoustic guitar
A/ / / / F#m/ / / / D/ / / / E/ / / / repeat the whole song

outro
e|----------12-9------------12-9-----------12-9---------------------|
b|---12b14-------12-10-10--------12-10-10------12-10-9---10-12------|
g|------------------------------------------------------------------|
d|------------------------------------------------------------------|
a|------------------------------------------------------------------|
E|------------------------------------------------------------------|

e|-------------------------------------------------------------------------------|
b|-12b14--12-10--12b14--12-10-7---12b14---12-10---12b14---12-10-7----------------|
g|-------------------------------------------------------------------------------|
d|-------------------------------------------------------------------------------|
a|-------------------------------------------------------------------------------|
E|-------------------------------------------------------------------------------|

e|-------------------------------------------------------------------------------|
b|--12b14---12-10---------12b14---12-10-9---10-12--------------------------------|
g|-------------------------------------------------------------------------------|
d|-------------------------------------------------------------------------------|
a|-------------------------------------------------------------------------------|
E|-------------------------------------------------------------------------------|
Related for An Awful Crime tab