Song name
# A B C D E F G H I J K L M N O P Q R S T U V W X Y Z

Hurt Process - A Mind With Two Faces tab

Song: A Mind With Two Faces
Band: The Hurt Process
Tuning: Standard (Thats how I play it)
Email/MSN: deathbyfire69@hotmail.com
Tabbed by: J Skoba

|-------------------------------|
|-------------------------------|
|-------5-----------------------|
|---3--------3---3--------------|
|-5---5----5---5---5-333-333----|
|-------------------------------|

|-------------------------------|
|-------------------------------|
|-------3-----------------------|
|---3-------3---3---------------|
|-5---5---5---5---5p0-3---------|
|-------------------------------|

|-------------------------------|
|-------------------------------|
|-------2-----------------------|
|---3-------3---3---------------|
|-1---1---1---1---1-333-333-----|
|-------------------------------|

|-------------------------------|
|-------------------------------|
|-------2-----------------------|
|---3-------3---3---------------|
|-1---1---1---1---1p0-3---------|
|-------------------------------|
Tap to rate this tab
# A B C D E F G H I J K L M N O P Q R S T U V W X Y Z