Guitaretab - guitar tabs
Song name
# A B C D E F G H I J K L M N O P Q R S T U V W X Y Z
Home / H / Hurt / Unclean tab

Hurt - Unclean tab

Band : Hurt
Song : Unclean
Album : The Consumation/The Re-Consumation
Tuning : Db Ab Db Gb Bb eb

I have to thank "qzpl" for his/her version of this tab. I based my
version off of it. The harmonics in the beginning don't entirely
match the song which leads me to believe that I may have tabbed
this in the wrong tuning. However, the rest of the song sounds
fine other than the second verse which seemed hard to decipher.

I tried my best. Revise it if thats what it needs. HURT rocks so
much. This is such an overlooked song and needs to be played live.
Maybe someday.

Intro - Harmonics ( 0:00 - 0:18 )
|----------------------|
|----------------------|
|----------------------|
|-5*----------5*-------|
|-------5*----------5*-|
|----------------------|

Intro - Palm Muted ( 0:18 - 0:31 )
|----------------------|
|----------------------|
|----------------------|
|-0-0-0-3-0--0-0-0-3-0-|
|-0-0-0-3-0--0-0-0-3-0-|
|-0-0-0-3-0--0-0-0-3-0-|

Intro - Open ( 0:31 - 0:43 )
|-------------------------------|
|-------------------------------|
|-------------------------------|
|-0-0-0-3-0--0-0-0-3-0--0-0-0-0-|
|-0-0-0-3-0--0-0-0-3-0--0-0-0-0-|
|-0-0-0-3-0--0-0-0-3-0--0-0-0-0-|

Verse 1 - Palm Muted ( 0:43 - 1:08 )
|----------------------|
|----------------------|
|----------------------|
|-0-0-0-3-0--0-0-0-3-0-|
|-0-0-0-3-0--0-0-0-3-0-|
|-0-0-0-3-0--0-0-0-3-0-|

Chorus 1 - Chorus Effect ( 1:08 - 1:32 )
|-0-------------------|
|-3-------------------|
|-2-------------------|
|-0----7----8----3--7-|
|-0----7----8----3--7-|
|-0----7----8----3--7-|
[ Tab from: http://www.guitaretab.com/h/hurt/102363.html ]
Break 1 - Palm Muted ( 1:32 - 1:45 )
|----------------------|
|----------------------|
|----------------------|
|-0-0-0-3-0--0-0-0-3-0-|
|-0-0-0-3-0--0-0-0-3-0-|
|-0-0-0-3-0--0-0-0-3-0-|

Verse 2 - Slightly Palm Muted/Chorus Effect ( 1:45 - 2:09 )
|--------------------------------|
|--------------------------------|
|--------------------------------|
|-7-77-7-77-7-77--8-88-8-88-8-88-|
|-5-55-5-55-5-55--5-55-5-55-5-55-|
|-0-00-0-00-0-00--0-00-0-00-0-00-|

Verse 2 ( Continued )
|-----------------------------------------|
|-----------------------------------------|
|-----------------------------------------|
|-10-1010-10-1010-10-1010--8-88-8-88-8-88-|
|-5--5-5--5--5-5--5--5-5---5-55-5-55-5-55-|
|-0--0-0--0--0-0--0--0-0---0-00-0-00-0-00-|

Chorus 2 - Chorus Effect ( 2:09 - 2:34 )
|-0-------------------|
|-3-------------------|
|-2-------------------|
|-0----7----8----3--7-|
|-0----7----8----3--7-|
|-0----7----8----3--7-|

Bridge Part 1 - Let each note ring ( 2:34 - 2:58 )
|--------------------|
|--------------------|
|--------------------|
|--------------------|
|--------------------|
|-0----7----8---3--7-|

Bridge Part 2 - Palm Muted ( 2:58 - 3:07 )
|----------------------|
|----------------------|
|----------------------|
|-0-0-0-3-0--0-0-0-3-0-|
|-0-0-0-3-0--0-0-0-3-0-|
|-0-0-0-3-0--0-0-0-3-0-|

Palm Muted chugs before last chorus ( 3:07 - 3:11 )
|---------------|
|---------------|
|---------------|
|-0--0--0--0--0-|
|-0--0--0--0--0-|
|-0--0--0--0--0-|

Chorus 3 - Chorus Effect ( 3:11 - 4:06 )
|-0-------------------|
|-3-------------------|
|-2-------------------|
|-0----7----8----3--7-|
|-0----7----8----3--7-|
|-0----7----8----3--7-|

~ zeptallica06.
Related for Unclean tab
×
Unclean