Song name
# A B C D E F G H I J K L M N O P Q R S T U V W X Y Z

Hurt - Summers Lost tab

-------------------------------------------------------------------------------
			     Summers Lost - Hurt
-------------------------------------------------------------------------------
Tabbed by: jhawk

*This was tabbed using Courier New 10 pt font.

*This is a work in progress, but I thought somebody might appreciate what I've
been able to get down in what little spare time I have.  I will update this as
I have time.  Enjoy!

Tuning: Drop D

_______Guitars_______
Gtr.   I = Acoustic
Gtr.  II = Acoustic
Gtr. III = Dirty Electric
Gtr.  IV = Dirty Electric
Gtr.   V = Dobro (Arranged for Clean Electric)		
				
| /  Slide up						
| \  Slide down						
| h  Hammer-on						
| b  Bend			
| r  Release			
| p  Pull-off
| ~  Vibrato
| +  Harmonic
| x  Mute note
| *  Staccato
| >  Gradual fade out


  Intro                                                              Gtr. I
	     x4	           x6            1x            1x             x4
e|-------------|-------------|-------------|-------------|--------------|----|
B|-------------|-------------|-------------|-------------|--------------|----|
G|-------2-----|-------3-----|-------2-----|-------0-----|-------2------|----|
D|-0-2-3---3-2-|-0-2-3---3-2-|-0-2-3---3-2-|-0-2-3---3-2-|-0-2-3---3-2--|----|
A|-------------|-------------|-------------|-------------|--------------|----|
D|-------------|-------------|-------------|-------------|--------------|----|
  pm..................................................................
   
                                                                     Gtr. I

e|-------------|-------------|-------------|-------------|-------------------|
B|-------------|-------------|-------------|-------------|-------------------|
G|-------2-----|-------2-----|-------2-----|-------2-----|-------------------|
D|-0-2-3---3-2-|-0-2-3---3-2-|-0-2-3---3-2-|-0-2-3---3-2-|-------------------|
A|-------------|-------------|-------------|-------------|-------------------|
D|-------------|-------------|-------------|-------------|-------------------|
 |pm.....................................................                    |
 |                                                                   Gtr. II |
 | Listen to CD for exact rhythm                                             |
e|-5-------5---|-----5---5---|-----5---5---|-5---5---5-5-|-------------------|
B|-3-------3---|-----3---3---|-----3---3---|-3---3---3-3-|-------------------|
G|-2-------2---|-----2---2---|-----2---2---|-2---2---2-2-|-------------------|
D|-0-----------|-------------|-------------|-------------|-------------------|
A|-------------|-------------|-------------|-------------|-------------------|
D|-------------|-------------|-------------|-------------|-------------------|

                                                                     Gtr. I

e|-------------|-------------|-------------|-------------|-------------|-----|
B|-------------|-------------|-------------|-------------|-------------|-----|
G|-------3-----|-------3-----|-------3-----|-------3-----|-------------|-----|
D|-0-2-3---3-2-|-0-2-3---3-2-|-0-2-3---3-2-|-0-2-3---3-2-|-------------|-----|
A|-------------|-------------|-------------|-------------|-------------|-----|
D|-------------|-------------|-------------|-------------|-------------|-----|
 |pm.....................................................                    |
 |                                                                   Gtr. II |
 | Listen to CD for exact rhythm                                             |
e|-6-------6---|-----6---6---|-----6---6---|-6---6---6-6-|-------------------|
B|-3-------3---|-----3---3---|-----3---3---|-3---3---3-3-|-------------------|
G|-3-------3---|-----3---3---|-----3---3---|-3---3---3-3-|-------------------|
D|-0-----------|-------------|-------------|-------------|-------------------|
A|-------------|-------------|-------------|-------------|-------------------|
D|-------------|-------------|-------------|-------------|-------------------|

                                                                     Gtr. I

e|-------------|-------------|-------------|-------------|-------------|-----|
B|-------------|-------------|-------------|-------------|-------------|-----|
G|-------3-----|-------3-----|-------2-----|-------0-----|-------------|-----|
D|-0-2-3---3-2-|-0-2-3---3-2-|-0-2-3---3-2-|-0-2-3---3-2-|-------------|-----|
A|-------------|-------------|-------------|-------------|-------------|-----|
D|-------------|-------------|-------------|-------------|-------------|-----|
 |pm.....................................................                    |
 |                                                                   Gtr. II |
 | Listen to CD for exact rhythm                                             |
e|-6-------6---|-----6---6---|-----8---8---|-8---6---5---|-------------------|
B|-3-------3---|-----3---3---|-----5---5---|-5---5---3---|-------------------|
G|-3-------3---|-----3---3---|-----5---5---|-5---5---2---|-------------------|
D|-0-----------|-------------|-------------|---------0---|-------------------|
A|-------------|-------------|-------------|---------0---|-------------------|
D|-------------|-------------|-------------|-------------|-------------------|

                                                                     Gtr. I

e|-------------|-------------|-------------|-------------|-------------------|
B|-------------|-------------|-------------|-------------|-------------------|
G|-------------|-------------|-------------|-------------|-------------------|
D|-------5-----|-------5-----|-------5-----|-------5-----|-------------------|
A|-5-7-8---8-7-|-5-7-8---8-7-|-5-7-8---8-7-|-5-7-8---8-7-|-------------------|
D|-------------|-------------|-------------|-------------|-------------------|
 |pm.....................................................                    |
 |                                                                   Gtr. II |
 | Listen to CD for exact rhythm                                             |
e|-5-------5---|-----5---5---|-----5---5---|-5---5---5-5-|-------------------|
B|-3-------3---|-----3---3---|-----3---3---|-3---3---3-3-|-------------------|
G|-2-------2---|-----2---2---|-----2---2---|-2---2---2-2-|-------------------|
D|-0-----------|-------------|-------------|-------------|-------------------|
A|-------------|-------------|-------------|-------------|-------------------|
D|-------------|-------------|-------------|-------------|-------------------|

                                                                     Gtr. I
                           x2                          x2
e|-------------|-------------|-------------|-------------|-------------------|
B|-------------|-------------|-------------|-------------|-------------------|
G|-------------|-------------|-------------|-------------|-------------------|
D|-------5-----|-------5-----|-------8-----|-------8-----|-------------------|
A|-5-7-8---8-7-|-5-7-8---8-7-|-5-7-8---8-7-|-5-7-8---8-7-|-------------------|
D|-------------|-------------|-------------|-------------|-------------------|
 |pm.....................................................                    |
 |                                                                   Gtr. II |
 |                         x1                          x1                    |
e|---------------------------|---------------------------|-------------------|
B|---------------------------|---------------------------|-------------------|
G|---7/10-9-7-5--7-10-7------|---7/10-9-7-5--7p5p0---2h3-|-------------------|
D|-0-0-----------------------|-0-0-----------------------|-------------------|
A|---------------------------|---------------------------|-------------------|
D|---------------------------|---------------------------|-------------------|

                                                                     Gtr. I 

e|-------------|-------------|-------------|-------------|-------------------|
B|-------------|-------------|-------------|-------------|-------------------|
G|-------------|-------------|-------------|-------------|-------------------|
D|-------8-----|-------8-----|-------7-----|-------5-----|-------------------|
A|-5-7-8---8-7-|-5-7-8---8-7-|-5-7-8---8-7-|-5-7-8---8-7-|-------------------|
D|-------------|-------------|-------------|-------------|-------------------|
 |pm.....................................................                    |
 |                                                                   Gtr. II |
 |                                                                   > > > > |
e|---------------------------|---------------------------|-------------------|
B|---------------------------|---------------------------|-------------------|
G|------------------work in progress---------------------|-7-7-7-7-7-7-7-7-7-|
D|---------------------------|---------------------------|-------------------|
A|---------------------------|---------------------------|-------------------|
D|---------------------------|---------------------------|-------------------|
                                                           * * * * * * * * *

  Verse 1  Lie to me...                                              Gtr. I
             x4            x6                                        x4
e|-------------|-------------|-------------|-------------|-------------|-----|
B|-------------|-------------|-------------|-------------|-------------|-----|
G|-------------|-------------|-------------|-------------|-------------|-----|
D|-------7-----|-------8-----|-------7-----|-------5-----|-------7-----|-----|
A|-5-7-8---8-7-|-5-7-8---8-7-|-5-7-8---8-7-|-5-7-8---8-7-|-5-7-8---8-7-|-----|
D|-------------|-------------|-------------|-------------|-------------|-----|
  pm...........................................................

                                                                     Gtr. I
             x4            x6
e|-------------|-------------|-------------|-------------|-------------|-----|
B|-------------|-------------|-------------|-------------|-------------|-----|
G|-------------|-------------|-------------|-------------|-------------|-----|
D|-------7-----|-------8-----|-------7-----|-------5-----|-------------|-----|
A|-5-7-8---8-7-|-5-7-8---8-7-|-5-7-8---8-7-|-5-7-8---8-7-|-------------|-----|
D|-------------|-------------|-------------|-------------|-------------|-----|
 |pm.....................................................                    |
 |                                                                   Gtr. II |
 |           x4            x6                                                |
e|-------------|-------------|-------------|-------------|-------------------|
B|-------------|-------------|-------------|-------------|-------------------|
G|-------2-----|-------3-----|-------2-----|-------0-----|-------------------|
D|-0-2-3---3-2-|-0-2-3---3-2-|-0-2-3---3-2-|-0-2-3---3-2-|-------------------|
A|-------------|-------------|-------------|-------------|-------------------|
D|-------------|-------------|-------------|-------------|-------------------|
  
                                                                     Gtr. I
                                                                     
e|------------|-------------|------------------------------------------------|
B|------------|-------------|------------------------------------------------|
G|------------|-------------|------------------------------------------------|
D|-0--0--0--0-|-0--0--0-----|------------------------------------------------|
A|-0--0--0--0-|-0--0--0-----|------------------------------------------------|
D|-0--0--0--0-|-0--0--0-----|------------------------------------------------|
 | *  *  *  *   *  *  *                                                      |
 |                                                                   Gtr. II |
 |                                                                           |
e|------------|-------------|------------------------------------------------|
B|------------|-------------|------------------------------------------------|
G|------------|-------------|------------------------------------------------|
D|-7--7--7--7-|-7--7--7-----|------------------------------------------------|
A|-7--7--7--7-|-7--7--7-----|------------------------------------------------|
D|-7--7--7--7-|-7--7--7-----|------------------------------------------------|
   *  *  *  *   *  *  *

  Bridge                                                             Gtr. I
  
e|---------------------------------------------------------------------------|
B|---------------------------------------------------------------------------|
G|-------------------------------------------------5-------------------------|
D|-7--5-----------0----------3-----5b6r5p3-----5/7---5-5h7p5\3h5--2-2h3--2---|
A|-5--3-----0h3h5---3/5--3/5---3-----------5-3-----------------------------0-|
D|-------5-------------------------------------------------------------------|
 |                    *      *                                               |
 |                                                                   Gtr. II |
 |                                                                           |
e|---------------------------------------------------------------------------|
B|---------------------------------------------------------------------------|
G|------------------------------in progress----------------------------------|
D|---------------------------------------------------------------------------|
A|---------------------------------------------------------------------------|
D|---------------------------------------------------------------------------|

                                                                     Gtr. I
                                                                     
e|---------------------------------------------------------------------------|
B|---------------------------------------------------------------------------|
G|-10--------5---------10--------5---------10--------5---------10--------5---|
D|-8---------3---------8---------3---------8---------3---------8---------3---|
A|-8---------3---------8---------3---------8---------3---------8---------3---|
D|-8---------3---------8---------3---------8---------3---------8---------3---|
 |                                                                           |
 |                                                                   Gtr. V  |
 |                                                                           |
e|---------------------------------------------------------------------------|
B|-12/15\-8/10----12/15\-8/10----12/15-15-15\-8/10-10\-----------------------|
G|--------------------------------------------------------8/10\----5/7-------|
D|---------------------------------------------------------------------------|
A|---------------------------------------------------------------------------|
D|---------------------------------------------------------------------------|

  Verse 2  To try to be...                                           Gtr. III
             x4            x6                                        x4
e|-------------|-------------|-------------|-------------|-------------|-----|
B|-------------|-------------|-------------|-------------|-------------|-----|
G|-------------|-------------|-------------|-------------|-------------|-----|
D|-------7-----|-------8-----|-------7-----|-------5-----|-------7-----|-----|
A|-5-7-8---8-7-|-5-7-8---8-7-|-5-7-8---8-7-|-5-7-8---8-7-|-5-7-8---8-7-|-----|
D|-------------|-------------|-------------|-------------|-------------|-----|
  pm..................................................................

                                                                     Gtr. III  
             x4            x6
e|-------------|-------------|-------------|-------------|-------------|-----|
B|-------------|-------------|-------------|-------------|-------------|-----|
G|-------------|-------------|-------------|-------------|-------------|-----|
D|-------7-----|-------8-----|-------7-----|-------5-----|-------------|-----|
A|-5-7-8---8-7-|-5-7-8---8-7-|-5-7-8---8-7-|-5-7-8---8-7-|-------------|-----|
D|-------------|-------------|-------------|-------------|-------------|-----|
 |pm.....................................................                    |
 |                                                                   Gtr. IV |
 |           x4            x6                                                |
e|-------------|-------------|-------------|-------------|-------------------|
B|-------------|-------------|-------------|-------------|-------------------|
G|-------2-----|-------3-----|-------2-----|-------0-----|-------------------|
D|-0-2-3---3-2-|-0-2-3---3-2-|-0-2-3---3-2-|-0-2-3---3-2-|-------------------|
A|-------------|-------------|-------------|-------------|-------------------|
D|-------------|-------------|-------------|-------------|-------------------|

                                                                     Gtr. I
                                                                     
e|------------|------------|-------------------------------------------------|
B|------------|------------|-------------------------------------------------|
G|------------|------------|-------------------------------------------------|
D|-0--0--0--0-|-0--0--0--0-|-0--0--------------------------------------------|
A|-0--0--0--0-|-0--0--0--0-|-0--0--------------------------------------------|
D|-0--0--0--0-|-0--0--0--0-|-0--0--------------------------------------------|
 | *  *  *  *   *  *  *  *   *  *                                            |
 |                                                                   Gtr. II |
 |                                                                           |
e|------------|------------|-------------------------------------------------|
B|------------|------------|-------------------------------------------------|
G|------------|------------|-------------------------------------------------|
D|-7--7--7--7-|-7--7--7--7-|-7--7--------------------------------------------|
A|-7--7--7--7-|-7--7--7--7-|-7--7--------------------------------------------|
D|-7--7--7--7-|-7--7--7--7-|-7--7--------------------------------------------|
   *  *  *  *   *  *  *  *   *  *
  Chorus 1                                                           Gtr. I
                                                        x7
e|----------------------------|----------------------------|-----------------|
B|----------------------------|----------------------------|-----------------|
G|----------------------------|----------------------------|-----------------|
D|-8-8-8--8-8-8--8-8-8--8-8-8-|-0-0-0--0-0-0--0-0-0--0-0-0-|-----------------|
A|-8-8-8--8-8-8--8-8-8--8-8-8-|-0-0-0--0-0-0--0-0-0--0-0-0-|-----------------|
D|-8-8-8--8-8-8--8-8-8--8-8-8-|-0-0-0--0-0-0--0-0-0--0-0-0-|-----------------|
 |                                                                           |
 |                                                                           |
 |                                                                           |  
e|----------------------------|----------------------------------------------|
B|----------------------------|----------------------------------------------|
G|-10-------------------------|-9--------------------------------------------|
D|-8--------------------------|-7--------------------------------------------|
A|----------------------------|----------------------------------------------|
D|----------------------------|----------------------------------------------|
 |                                                                           |
 |                                                                           |
 |                                                                           |  
e|---------------------------------------------------------------------------|
B|---------------------------------------------------------------------------|
G|--------------------------------in progress--------------------------------|
D|---------------------------------------------------------------------------|
A|---------------------------------------------------------------------------|
D|---------------------------------------------------------------------------|



e|----------------------------|----------------------------------------------|
B|----------------------------|----------------------------------------------|
G|----------------------------|----------------------------------------------|
D|-8-8-8--8-8-8--8-8-8--8-8-8-|-0--------------------------------------------|
A|-8-8-8--8-8-8--8-8-8--8-8-8-|-0--------------------------------------------|
D|-8-8-8--8-8-8--8-8-8--8-8-8-|-0--------------------------------------------|
 |                                                                           |
 |                                                                           |
 |                                                                           |  
e|---------------------------------------------------------------------------|
B|---------------------------------------------------------------------------|
G|-10----------------------------in progress---------------------------------|
D|-8-------------------------------------------------------------------------|
A|---------------------------------------------------------------------------|
D|---------------------------------------------------------------------------|
 |                                                                           |
 |                                                                           |
 |                                                                           |  
e|---------------------------------------------------------------------------|
B|---------------------------------------------------------------------------|
G|-------------------------------in progress---------------------------------|
D|---------------------------------------------------------------------------|
A|---------------------------------------------------------------------------|
D|---------------------------------------------------------------------------|

  Heavy Interlude  Nights without end...                             Gtr. I
                                                                           x4
e|------------|------------|-------------------------------------------------|
B|------------|------------|-------------------------------------------------|
G|------------|------------|-------------------------------------------------|
D|-0--0--0--0-|-0--0--0--0-|-0--0--------------------------------------------|
A|-0--0--0--0-|-0--0--0--0-|-0--0--------------------------------------------|
D|-0--0--0--0-|-0--0--0--0-|-0--0--------------------------------------------|
 | *  *  *  *   *  *  *  *   *  *                                            |
 |                                                                           |
 |                                                                   Gtr. II |
e|------------|------------|-------------------------------------------------|
B|------------|------------|-------------------------------------------------|
G|------------|------------|-------------------------------------------------|
D|-7--7--7--7-|-7--7--7--7-|-7--7--------------------------------------------|
A|-7--7--7--7-|-7--7--7--7-|-7--7--------------------------------------------|
D|-7--7--7--7-|-7--7--7--7-|-7--7--------------------------------------------|
   *  *  *  *   *  *  *  *   *  *


e|---------------------------------------------------------------------------|
B|---------------------------------------------------------------------------|
G|-------------------------------in progress---------------------------------|
D|---------------------------------------------------------------------------|
A|---------------------------------------------------------------------------|
D|---------------------------------------------------------------------------|



e|---------------------------------------------------------------------------|
B|---------------------------------------------------------------------------|
G|---------------------------------------------------------------------------|
D|---------------------------------------------------------------------------|
A|---------------------------------------------------------------------------|
D|---------------------------------------------------------------------------|

  Chorus 2                                                           Gtr. I
                                                         x4
e|----------------------------|----------------------------|-----------------|
B|----------------------------|----------------------------|-----------------|
G|----------------------------|----------------------------|-----------------|
D|-8-8-8--8-8-8--8-8-8--8-8-8-|-0-0-0--0-0-0--0-0-0--0-0-0-|-----------------|
A|-8-8-8--8-8-8--8-8-8--8-8-8-|-0-0-0--0-0-0--0-0-0--0-0-0-|-----------------|
D|-8-8-8--8-8-8--8-8-8--8-8-8-|-0-0-0--0-0-0--0-0-0--0-0-0-|-----------------|
 |pm.......................................................                  |
 |                                                                           |
 |                                                                           |  
e|----------------------------|----------------------------------------------|
B|----------------------------|----------------------------------------------|
G|-10-------------------------|-9--------------------------------------------|
D|-8--------------------------|-7--------------------------------------------|
A|----------------------------|----------------------------------------------|
D|----------------------------|----------------------------------------------|
 |                                                                           |
 |                                                                           |
 |                                                                           |  
e|---------------------------------------------------------------------------|
B|---------------------------------------------------------------------------|
G|------------------------------in progress----------------------------------|
D|---------------------------------------------------------------------------|
A|---------------------------------------------------------------------------|
D|---------------------------------------------------------------------------|

                                                                     Gtr. I

e|----------------------------|----------------------------|-----------------|
B|----------------------------|----------------------------|-----------------|
G|----------------------------|----------------------------|-----------------|
D|-8-8-8--8-8-8--8-8-8--8-8-8-|-0-0-0--0-0-0--0-0-0--0-0-0-|-----------------|
A|-8-8-8--8-8-8--8-8-8--8-8-8-|-0-0-0--0-0-0--0-0-0--0-0-0-|-----------------|
D|-8-8-8--8-8-8--8-8-8--8-8-8-|-0-0-0--0-0-0--0-0-0--0-0-0-|-----------------|
 |pm.................................                                        |
 |                                                                           |
 |                                                                           |  
e|---------------------------------------------------------------------------|
B|---------------------------------------------------------------------------|
G|------------------------------in progress----------------------------------|
D|---------------------------------------------------------------------------|
A|---------------------------------------------------------------------------|
D|---------------------------------------------------------------------------|
 |                                                                           |
 |                                                                           |
 |                                                                           |  
e|---------------------------------------------------------------------------|
B|---------------------------------------------------------------------------|
G|------------------------------in progress----------------------------------|
D|---------------------------------------------------------------------------|
A|---------------------------------------------------------------------------|
D|---------------------------------------------------------------------------|

                                                                     Gtr. I

e|----------------------------|----------------------------|-----------------|
B|----------------------------|----------------------------|-----------------|
G|----------------------------|----------------------------|-----------------|
D|-8-8-8--8-8-8--8-8-8--8-8-8-|-0-0-0--0-0-0--0-0-0--0-0-0-|-----------------|
A|-8-8-8--8-8-8--8-8-8--8-8-8-|-0-0-0--0-0-0--0-0-0--0-0-0-|-----------------|
D|-8-8-8--8-8-8--8-8-8--8-8-8-|-0-0-0--0-0-0--0-0-0--0-0-0-|-----------------|
 |pm.......................................................                  |
 |                                                                   Gtr. II |
 |                                                                           |  
e|-------------|-------------|-------------|-------------------|-------------|
B|-------------|-------------|-------------|-------------------|-------------|
G|-------------|-------------|-------------|-------------------|-------------|
D|-------7-----|-------7-----|-------7-----|-------7-8-7-5-----|-------------|
A|-5-7-8---8-7-|-5-7-8---8-7-|-5-7-8---8-7-|-5-7-8---------8-7-|-------------|
D|-------------|-------------|-------------|-------------------|-------------|
 |pm..................................................................       |
 |                                                                           |
 |                                                                           |  
e|---------------------------------------------------------------------------|
B|---------------------------------------------------------------------------|
G|------------------------------in progress----------------------------------|
D|---------------------------------------------------------------------------|
A|---------------------------------------------------------------------------|
D|---------------------------------------------------------------------------|



e|----------------------------|----------------------------------------------|
B|----------------------------|----------------------------------------------|
G|----------------------------|----------------------------------------------|
D|-8-8-8--8-8-8--8-8-8--8-8-8-|-0--------------------------------------------|
A|-8-8-8--8-8-8--8-8-8--8-8-8-|-0--------------------------------------------|
D|-8-8-8--8-8-8--8-8-8--8-8-8-|-0--------------------------------------------|
 |                                                                           |
 |                                                                           |
 |                                                                           |  
e|-------------|--------------|----------------------------------------------|
B|-------------|--------------|----------------------------------------------|
G|-------------|--------------|----------------------------------------------|
D|-------7-----|-------5------|-0--------------------------------------------|
A|-5-7-8---8-7-|-5-7-8---8-7--|-0--------------------------------------------|
D|-------------|--------------|-0--------------------------------------------|
 |                                                                           |
 |                                                                           |
 |                                                                           |  
e|---------------------------------------------------------------------------|
B|---------------------------------------------------------------------------|
G|---------------------------------------------------------------------------|
D|---------------------------------------------------------------------------|
A|---------------------------------------------------------------------------|
D|---------------------------------------------------------------------------|

==============================================================================
Tap to rate this tab
# A B C D E F G H I J K L M N O P Q R S T U V W X Y Z