Song name
# A B C D E F G H I J K L M N O P Q R S T U V W X Y Z

Hurt - Abuse Of Sid tab

-------------------------------------------------------------------------------
			     Abuse of SID - Hurt
-------------------------------------------------------------------------------
Tabbed by: jhawk

*This was tabbed using Courier New 10 pt font.

*This is a work in progress, but I thought somebody might appreciate what I've
been able to get down in what little spare time I have.  I will update this as
I have time.  Enjoy!

Tuning: (Db, Ab, Db, Gb, Bb, eb)

_______Guitars_______
Gtr.   I = Acoustic
Gtr.  II = Acoustic
Gtr. III = Slightly Dirty Electric
Gtr.  IV = Dirty Electric
Gtr.   V = Dirty Electric
Gtr.  VI = Electric Violin	

| /  Slide up				
| \  Slide down				
| h  Hammer-on				
| b  Bend				
| r  Release				
| p  Pull-off				
| ~  Vibrato
| +  Harmonic
| x  Mute note
| *  Staccato

   Intro                                                                    Gtr. I
eb|----------------------|----------------------|-----------------|---------------|
Bb|----------------------|----------------------|-----------------|---------------|
Gb|----------------------|----------------------|-----------------|---------------|
Db|-7h9-9-9--7-9b10r9----|-7h9-9-9--7-9b10r9----|-7---------------|-7-------------|
Ab|-0---0-0--0-0---------|-0---0-0--0-0---------|-7-7-7-h8p7-7----|-7-7-7-h8p7----|
Db|----------------------|----------------------|-7---------------|-7-------------|


                                                                            Gtr. I
eb|----------------------|----------------------|-----------------|---------------|
Bb|----------------------|----------------------|-----------------|---------------|
Gb|----------------------|----------------------|-----------------|---------------|
Db|-7h9-9-9--7-9b10r9--7-|-7h9-9-9--7-9b10r9p7--|-7---------------|---------------|
Ab|-0---0-0--0-0---------|-0---0-0--0-0---------|-7-77--7-h8p7----|-X-X---7-------|
Db|----------------------|----------------------|-7-----7-h8p7----|-X-X---7-------|


   Section 1  You want him...                                            Gtr. I x2
eb|---------------------------------------|---------------------------------------|
Bb|---------------------------------------|---------------------------------------|
Gb|---------------------------------------|---------------------------------------|
Db|-7---777--7---777--7---777---7--7--X---|-3-------------------------------------|
Ab|-7---777--7---777--7---777---7--7--X---|-3-------------------------------------|
Db|-7---777--7---777--7---777---7--7--X---|-3-------------------------------------|
  |                                                                               |
  |                                                                               |
  |                                                                    Gtr. III x2|
eb|---------------------------------------|---------------------------------------|
Bb|---------------------------------------|---------------------------------------|
Gb|---------------------------------------|---------------------------------------|
Db|-7---777--7---777--7---777---7--7--X---|-5-5/7-7--7-7/9-9--9-9/10-10---10------|
Ab|-7---777--7---777--7---777---7--7--X---|-0-0------0-0------0-0-------0----0----|
Db|-7---777--7---777--7---777---7--7--X---|---------------------------------------|


   Section 2  Still won't you...                                          Gtr. IV 
eb|---------------------------------------|---------------------------------------|
Bb|---------------------------------------|---------------------------------------|
Gb|---------------------------------------|---------------------------------------|
Db|-7--XXX--7--XXX--7--XXX--7---X--X--7---|-3-------------------------------------|
Ab|-7--XXX--7--XXX--7--XXX--7---X--X--7---|-3-------------------------------------|
Db|-7--XXX--7--XXX--7--XXX--7---X--X--7---|-3-------------------------------------|
  |    +++     +++     +++      +  +                                              |
  | Note: Harmonics are from the 7th/8th frets.                                   |
  |                                                                       Gtr. V  |
eb|---------------------------------------|---------------------------------------|
Bb|---------------------------------------|---------------------------------------|
Gb|---------------------------------------|---------------------------------------|
Db|-7--XXX--7--XXX--7--XXX--7---X--X--7---|-5-5/7-7--7-7/9-9--9-9/10-10---10------|
Ab|-7--XXX--7--XXX--7--XXX--7---X--X--7---|-0-0------0-0------0-0-------0----0----|
Db|-7--XXX--7--XXX--7--XXX--7---X--X--7---|---------------------------------------|
       +++     +++     +++      +  +                          

                                                                          Gtr. IV
eb|---------------------------------------|---------------------------------------|
Bb|---------------------------------------|---------------------------------------|
Gb|---------------------------------------|---------------------------------------|
Db|-7--XXX--7--XXX--7--XXX--7---X--7------|-3-------------------------------------|
Ab|-7--XXX--7--XXX--7--XXX--7---X--7------|-3-------------------------------------|
Db|-7--XXX--7--XXX--7--XXX--7---X--7------|-3-------------------------------------|
  |    +++     +++     +++      +                                                 |
  | Note: Harmonics are from the 7th/8th frets.                                   |
  |                                                                       Gtr. V  |
eb|---------------------------------------|---------------------------------------|
Bb|---------------------------------------|---------------------------------------|
Gb|---------------------------------------|---------------------------------------|
Db|-7--XXX--7--XXX--7--XXX--7---X--7------|-5-5/7-7--7-7/9-9--9-9/10-10---10------|
Ab|-7--XXX--7--XXX--7--XXX--7---X--7------|-0-0------0-0------0-0-------0----0----|
Db|-7--XXX--7--XXX--7--XXX--7---X--7------|---------------------------------------|
       +++     +++     +++      +

   Section 3                  x2
eb|--------------|--------------|--------------|--------------|--------------|----|
Bb|--------------|--------------|--------------|--------------|--------------|----|
Gb|--------------|--------------|--------------|--------7-----|--------------|----|
Db|----9---10--7-|-9--9---10--7-|----9---10--7-|-9--9------10-|----9---10--7-|----|
Ab|--------------|----0---------|--------------|----0---------|--------------|----|
Db|--------------|--------------|--------------|--------------|--------------|----|
  |                                                                               |
  |                                                                               |
  |                                                                       Gtr. VI |
eb|--------------|----------------------------------------------------------------|
Bb|---12~~13~~10~|----------------------------------------------------------------|
Gb|--------------|----------------------In Progress-------------------------------|
Db|--------------|----------------------------------------------------------------|
Ab|--------------|----------------------------------------------------------------|
Db|--------------|----------------------------------------------------------------|


   Section 4
eb|---------------------------------------|---------------------------------------|
Bb|---------------------------------------|---------------------------------------|
Gb|---------------------------------------|---------------------------------------|
Db|-3-------3-------3-------3--3-3/7------|-7--777--7--777--7--777--7--7--7-------|
Ab|-3-------3-------3-------3--3-3/7------|-7--777--7--777--7--777--7--7--7-------|
Db|-3-------3-------3-------3--3-3/7------|-7--777--7--777--7--777--7--7--7-------|
  | *       *       *       *                                                     |
  |                                                                               |
  |                                                                               |
eb|-------------------------------------------------------------------------------|
Bb|-------------------------------------------------------------------------------|
Gb|-------------------------------------------------------------------------------|
Db|-------------------------------------------------------------------------------|
Ab|-------------------------------------------------------------------------------|
Db|-------------------------------------------------------------------------------|



eb|---------------------------------------|---------------------------------------|
Bb|---------------------------------------|---------------------------------------|
Gb|---------------------------------------|---------------------------------------|
Db|-3-------3-------3-------3--3-3/-------|-7--777--7--777--7--777--7--7--7-------|
Ab|-3-------3-------3-------3--3-3/-------|-7--777--7--777--7--777--7--7--7-------|
Db|-3-------3-------3-------3--3-3/-------|-7--777--7--777--7--777--7--7--7-------|
  | *       *       *       *                                                     |
  |                                                                               |
  |                                                                               |
eb|-------------------------------------------------------------------------------|
Bb|-------------------------------------------------------------------------------|
Gb|-------------------------------------------------------------------------------|
Db|-------------------------------------------------------------------------------|
Ab|-------------------------------------------------------------------------------|
Db|-------------------------------------------------------------------------------|



eb|-------------------------------------------------------------------------------|
Bb|-------------------------------------------------------------------------------|
Gb|-------------------------------------------------------------------------------|
Db|-------------------------------------------------------------------------------|
Ab|-------------------------------------------------------------------------------|
Db|-------------------------------------------------------------------------------|


   Outro
eb|----------------------|----------------------|---------------|-----------------|
Bb|----------------------|----------------------|---------------|-----------------|
Gb|----------------------|----------------------|---------------|-----------------|
Db|-7h9-9-9--7-9b10r9----|-7h9-9-9--7-9b10r9----|-7-------------|-7---------------|
Ab|-0---0-0--0-0---------|-0---0-0--0-0---------|-7-7-7-h8p7-7--|-7-7-7-h8p7------|
Db|----------------------|----------------------|-7-------------|-7---------------|


                                                                          Gtr. I
eb|----------------------|----------------------|---------------|-----------------|
Bb|----------------------|----------------------|---------------|-----------------|
Gb|----------------------|----------------------|---------------|-----------------|
Db|-7h9-9-9--7-9b10r9--7-|-7h9-9-9--7-9b10r9p7--|-7-------------|-----------------|
Ab|-0---0-0--0-0---------|-0---0-0--0-0---------|-7-7-7-h8p7----|-7-X---7---------|
Db|----------------------|----------------------|-7---7-h8p7----|-7-X-------------|

===================================================================================
Tap to rate this tab
 
# A B C D E F G H I J K L M N O P Q R S T U V W X Y Z