Song name
# A B C D E F G H I J K L M N O P Q R S T U V W X Y Z

Hurt - Rapture Acoustic tab

Note: ...please read

First of let me say
the acoustic verion of this is hard to find
((so im told)) and it is much harder then the orignal
and some more adv riffs so do not try to play this
with the regular rapture song it WILL NOT FIT
at all... also some parts are inproved because the
gutiar drops to low to be heard and vocals take over
its diffcult at first but once you break it down its not that hard really
did the best I could sorry if it could be better


--------------------------------------------------------------------------
                         Hurt - Rapture acoustic
                         Tabbed by : Brownies
--------------------------------------------------------------------------
Tune this to Drop C

         RapTure - Acustic tab
D#
A#
F#
C#
G#
C#


|---------------------------------------------------------------------|
|---------------------------------------------------------------------|
|--15-14-12----12---12---12-----17-15-14--14-14-14--------------------|
|---0--0--0--0----0----0---0----0--0--0--0--0--0-----5--3--2----------|
|----------------------------------------------------0--0--0----------|
|---------------------------------------------------------------------|


|------------------------------------------------------------|
|------------------------------------------------------------|
|------------------------------------------------------------|  repeat once
|---------0---0-------------0---0---0------------------------|
|0(ringing)----------b3p0-----------------5p3p0--------------|
|0-----0----0---0----b3p0-0---0--0---0----5p3p0--------------|

bend at 5 release the bend at the 3 to
give this move more power

|-------------------------------------------------------|
|-------------------------------------------------------|
|--------0---0----0---------0---0---0-------------------|
|--0-(ringing)------------------------------------------|
|--0----0---0---0---3b0---0---0---0----5b3b0------------|
|-------------------------------------------------------|

|------------------------------------------------------------|
|------------------------------------------------------------|
|------------------------------------------------------------|
|---------0---0-------------0---0---0------------------------|
|0(ring)-------------b3p0---------------------------0--------|
|0-----0----0---0----b3p0-0---0--0---0----3b h5b-r3 0--------|

Kind of Confusing this last bend pull off thin
so its like this bend 3 then hard on 5 and bend it and relese to 3
then play the string open after releast the 3

                    ==================================

|--------------------------------------------------------------|
|--------------------------------------------------------------|
|--------------------------------------------------------------|
|--0---0-0-0-0-----0---0-0--3----------------------------------| x5
|--0---0-0-0-0-----0---0-0--3----------------------------------|
|--0---0-0-0-0-----0---0-0--3----------------------------------|
       *******         ***
           |             |
        *Muted*          |
     UP/down stroke------|
     start on down

 THen were he sing "until ur rapture falls to pieces"
|----------------------------------------------------------------------------------------------------|
|----------------------------------------------------------------------------------------------------|
|-7---7-7-7-7-7--7777---9--9-9-9-9-9---9999--10-10-10-10-10-1010----12--12-12-12-12-12--12121212-----|
|-X---x-x-x-x-x--xxxx---x--x-x-x-x-x---xxxx--x--x-x-x-x-x---xxxx----x---x--x--x--x--x---x-x-x-x------|
|-5---5-5-5-5-5--5555---7--7-7-7-7-7---7777--8--8-8-8-8-8---8888----10--10-10-10-10-10--10101010-----|
|----------------------------------------------------------------------------------------------------|
  Repeat x2     (listing to strumming)

   "Find in me.. Rooom to breath . simple things like suffering"
|----------------------------|
|----------------------------|
|-----0----------------------|
|--0----0------0-0-0-3-------| x3
|-0-0-----0----------3-------| play this moderly fast
|0----------0-0-0-0--3-------|

 "life has gone this way." -- Continue playing this

|--------------------------------------------------------------|
|--------------------------------------------------------------|
|--------------------------------------------------------------|
|-3-00000-3---00000-3---00000-3-000-3h5------------------------|
|-3-00000-3---00000-3---00000-3-000-3h5------------------------|
|-3-00000-3---00000-3---00000-3-000-3h5------------------------|
    *****     *****     *****   ***
  Dont forget the up and down strokes give song charater


 " so in the life of the wrong" --- play this

|--------------------------------------------------------------|
|--------------------------------------------------------------|
|--------------------------------------------------------------|
|--0---0-0-0-0-----0---0-0--3----0---0-0-0-0----0-00--3h5------|
|--0---0-0-0-0-----0---0-0--3----0---0-0-0-0----0-00--3h5------|
|--0---0-0-0-0-----0---0-0--3----0---0-0-0-0----0-00--3h5------|
       *******         ***           *******      **
           |             |                |        |
        *Muted*
     UP/down stroke
     start on down

"so she walked in the baby's room"
|--------------------------------------------------------------|
|--------------------------------------------------------------|
|--------------------------------------------------------------|
|-----5----3----2----0----0----0----0----0---------------------|
|---0----0----0----0----5----3----2----0---3-2-----------------| x3
|-0----0----0----0----0----0----0----0--------3-2-0------------|
   Play slower first time around

Not really sure on that part needed a fill it does well tho
sorry :(

"until ur rapture falls to pieces"
|----------------------------------------------------------------------------------------------------|
|----------------------------------------------------------------------------------------------------|
|-7---7-7-7-7-7--7777---9--9-9-9-9-9---9999--10-10-10-10-10-1010----12--12-12-12-12-12--12121212-----|
|-X---x-x-x-x-x--xxxx---x--x-x-x-x-x---xxxx--x--x-x-x-x-x---xxxx----x---x--x--x--x--x---x-x-x-x------|
|-5---5-5-5-5-5--5555---7--7-7-7-7-7---7777--8--8-8-8-8-8---8888----10--10-10-10-10-10--10101010-----|
|----------------------------------------------------------------------------------------------------|
x2

"Find in me.. Rooom to breath . simple things like suffering"
|----------------------------|
|----------------------------|
|-----0----------------------|
|--0----0------0-0-0-3-------| x3
|-0-0-----0----------3-------| play this moderly fast
|0----------0-0-0-0--3-------|

 ==== "gutiar only part" ====
|-------------------------------------------------------------------|
|-------------------------------------------------------------------|
|-------------------------------------------------------------------|
|---0---0---0---------0--0----------0---0-------3b-5b------5h3h0----|
|----------------------------5h3-------------3-5--------------------|
|-0---0---0---3h5p0-0--0---0----5-0---0---0-------------------------|

then repeat when he goes

  "and i would and i would destroy your god"
|-------------------------------------------------------------------|
|-------------------------------------------------------------------|
|-------------------------------------------------------------------|
|---0---0---0---------0--0----------0---0-------3b-5b------5h3h0----|
|----------------------------5h3-------------3-5--------------------|
|-0---0---0---3h5p0-0--0---0----5-0---0---0-------------------------|

        - - - - - - - -- -

       Silence


 - - -- - - -

"until your worn again .. "
|----------------------------------------------------------------------------------------------------|
|----------------------------------------------------------------------------------------------------|
|-7---7-7-7-7-7--7777---9--9-9-9-9-9---9999--10-10-10-10-10-1010----12--12-12-12-12-12--12121212-----|
|-X---x-x-x-x-x--xxxx---x--x-x-x-x-x---xxxx--x--x-x-x-x-x---xxxx----x---x--x--x--x--x---x-x-x-x------|
|-5---5-5-5-5-5--5555---7--7-7-7-7-7---7777--8--8-8-8-8-8---8888----10--10-10-10-10-10--10101010-----|
|----------------------------------------------------------------------------------------------------|
 play this x2


contine this until it goes silent


 "Just don't leave"
D#|--------------------------------------------------------------------------------------|
A#|--------------------------------------------------------------------------------------|
F#|--------------------------------------------------------------------------------------|
C#|-7-7777-7-7777--9-9999-9-9999--10-10101010-10-101010-/-12-12121212-12-121212----------|
G#|-5-5555-5-5555--7-7777-7-7777--8--8-8-8-8--8--8-8-8--/-10-10101010-10-101010----------|
C#|-0-0000-0-0000--0-0000-0-0000--0--0-0-0-0--0--0-0-0--/-0--0-0-0-0--0--0-0-0-----------|

 Hard on the first note of every cord change use up and down pretty fast and SLIGHLY 
the open C..also end on downstroke.. its hard to get
 but if you do it correct it sounds AWSOME


D#|--------------------------------|
A#|--------------------------------|
F#|--------------------------------|
C#|-7-----9-----10-----12----------|
G#|-5-x12-7-x12-8--x12-10-x12------|
C#|-0-----0-----0------0-----------|
    ************Muted all this now*************
		Still use up and down


|--------------------------------------------------------------|
|--------------------------------------------------------------|
|-----7--9--10----10--9--7----7--9--9h10----12--10--9---7------|
|---0-----------0-----------0----------------------------------|
|-0----0--0---0-----0-----0----0--0-------0---0---0------------|
|--------------------------------------------------------------|


I cant decifer the rest
the guitar gets quiet'er
and vocals take over
so end on that note or make someting up
its played softly and slowly so dont rush it
its a suttle ending
Tap to rate this tab
# A B C D E F G H I J K L M N O P Q R S T U V W X Y Z