Song name
# A B C D E F G H I J K L M N O P Q R S T U V W X Y Z

Hurt - Falls Apart tab

                             Hurt--Falls Apart
                                  Vol. I

Tuning: Drop C#/Db

Intro

Guitar 1
D#|----------------------------------------------------------------------|
A#|---1-----1-----------------------1-----1------------------------------|
F#|---2-----0--------0-0-0-0--------2-----0---------0--------------------|
C#|---2-----2----0h2-2-2-2-0h2------2-----2-----0h2-2--------------------|
G#|-0---0-3------3---3-3-3-3------0---0-3-------3---3--------------------|
C#|-----------3--3---3-3-3------------------3---3---3--------------------|

Guitar 2--Maybe a tremolo effect here? I'm not really sure
D#|----------------------------------------------------------------------|
A#|----------------------------------------------------------------------|
F#|--10~~~~~~~~~~~~~~~~10~~~~~~~~~~~~10~~~~~~~~~~~~~~~~10~~~~~~~~~~------|
C#|----------------------------------------------------------------------|
G#|----------------------------------------------------------------------|
C#|----------------------------------------------------------------------|

Verse 1 (Part 1)
Guitar 1
D#|----------------------------------------------------------------------|
A#|---1-----1-----------------------1-----1------------------------------|
F#|---2-----0--------0-0-0-0--------2-----0---------0--------------------|
C#|---2-----2----0h2-2-2-2-0h2------2-----2-----0h2-2--------------------|
G#|-0---0-3------3---3-3-3-3------0---0-3-------3---3--------------------|
C#|-----------3--3---3-3-3------------------3---3---3--------------------|

Guitar 2
D#|----------------------------------------------------------------------|
A#|----------------------------------------------------------------------|
F#|--10~~~~~~~~~~~~~~~~10~~~~~~~~~~~~10~~~~~~~~~~~~~~~~10~~~~~~~~~~------|
C#|----------------------------------------------------------------------|
G#|----------------------------------------------------------------------|
C#|----------------------------------------------------------------------|

(Part 2)
Guitar 1
D#|-------0--------0-----------------------------------------------------|
A#|-------1--------1-----------------------------------------------------|
F#|-----2--------0--------0-2--------------------------------------------|
C#|---2--------2---------------------------------------------------------|
G#|-0--------3---------3-------------------------------------------------|
C#|------------------3---------------------------------------------------|

Guitar 2
D#|----------------------------------------------------------------------|
A#|----------------------------------------------------------------------|
F#|--10~~~~~~~~~~~~~~~~10~~~~~~~~~~~~10~~~~~~~~~~~~~~~~10~~~~~~~~~~------|
C#|----------------------------------------------------------------------|
G#|----------------------------------------------------------------------|
C#|----------------------------------------------------------------------|

Chorus 1

Guitar 1
D#|----------------------------6-----------------------------7-6-------|
A#|------------------------------6-------------------------------6-----|
F#|--------------------------------------------------------------------|
C#|-3~~~~~/5~~~~~~/7~~~~~~~~~--------3~~~~~/5~~~~~/7~~~~~--------------|
G#|-3~~~~~/5~~~~~~/7~~~~~~~~~--------3~~~~~/5~~~~~/7~~~~~--------------|
C#|-3~~~~~/5~~~~~~/7~~~~~~~~~--------3~~~~~/5~~~~~/7~~~~~--------------|
Guitar 2
D#|---------------------------------|     |-------------------------------------|
A#|---------------------------------|     |-------------------------------------|
F#|---------------------------5-----|     |-------------------------------------|
C#|-7-5-7-5-7-5-7-5-7-5-7-5-7---7-5-|x7 |-7-5-7-5-7-5-7-5-7-5-7-5-7-5-7-5-5h7-|
G#|---------------------------------|     |-------------------------------------|
C#|---------------------------------|     |-------------------------------------|

Guitar 1
D#|----------------------------------------------------------------------|
A#|----------------------------------------------------------------------|
F#|----------------------------------------------------------------------|
C#|-3------5------3------5------3------5------7--------------------------|
G#|-3------5------3------5------3------5------7--------------------------|
C#|-3------5------3------5------3------5------7--------------------------|

Guitar 3
D#|-12--12/15---17/12---12/15---10/12---12/15---17/12--------------------|
A#|----------------------------------------------------------------------|
F#|----------------------------------------------------------------------|
C#|----------------------------------------------------------------------|
G#|----------------------------------------------------------------------|
C#|----------------------------------------------------------------------|

Verse 2
Guitar 1&2 same as Verse 1 (Part 1), add Guitar 3

Verse 2 (Part 2)
Guitar 1
D#|-------0-----------0--------------------------------------------------|
A#|-------1-----------1--------------------------------------------------|
F#|-------2-----------0-----------2-2---2-2---2--------------------------|
C#|---2-------2---2-------2-------0-0---0-0---0--------------------------|
G#|-0---0---0---3---3---3-----3-------3-----3----------------------------|
C#|-------------------------3---3-----3-----3----------------------------|

Guitar 3
D#|-5~~~/8~~~/13~~~~~~~~~-----5~~~/8~~~/1~~~~~~~~------------------------|
A#|----------------------------------------------------------------------|
F#|----------------------------------------------------------------------|
C#|----------------------------------------------------------------------|
G#|----------------------------------------------------------------------|
C#|----------------------------------------------------------------------|


Chorus 2

Guitar 1&2 (w/ distortion)(strumming not exact)
D#|----------------------------------------------------------------------|
A#|----------------------------------------------------------------------|
F#|----------------------------------------------------------------------|
C#|-3---3---33/5---5--55/7---7--7--7--7---10p9--0------------------------|
G#|-3---3---33/5---5--55/7---7--7--7--7---10p9--0------------------------|
C#|-3---3---33/5---5--55/7---7--7--7--7---10p9--0------------------------|

D#|----------------------------------------------------------------------|
A#|----------------------------------------------------------------------|
F#|----------------------------------------------------------------------|
C#|-3---3--33/5----5--55/7---7--7--7--7--\\\-----------------------------|
G#|-3---3--33/5----5--55/7---7--7--7--7--\\\-----------------------------|
C#|-3---3--33/5----5--55/7---7--7--7--7--\\\-----------------------------|

Guitar 1 ...I cracked my head and broke my.......
D#|----------------------------------------------------------------------|
A#|----------------------------------------------------------------------|
F#|----------------------------------------------------------------------|
C#|-------------------------------------------------------------------0--|
G#|-33333--33--55555--55--33333--33--55555--55--33333--33--55555--55--0--|
C#|-33333--33--55555--55--33333--33--55555--55--33333--33--55555--55--0--|
----pmpm---pm--pmpm---pm--pmpm---pm--pmpm---pm--pmpm---pm--pmpm---pm-----


Guitar 2--not sure on the open chords
D#|-----0----------0----------0----------0----------0-----------0--------|
A#|-----0----------0----------0----------0----------0-----------0--------|
F#|-----0----------0----------0----------0----------0-----------0--------|
C#|-------------------------------------------------------------------0--|
G#|-3333---33--5555---55--3333---33--5555---55--3333---33---5555--55--0--|
C#|-3333---33--5555---55--3333---33--5555---55--3333---33---5555--55--0--|
----pmpm---pm--pmpm---pm--pmpm---pm--pmpm---pm--pmpm---pm---pmpm--pm-----

Guitar 1  ..So woe is me...
D#|----------------------------------------------------------------------|
A#|----------------------------------------------------------------------|
F#|----------------------------------------------------------------------|
C#|-333-3---555-5---000-0---000-0---333-3---555-5---0~~~~~~~~~-----------|
G#|-333-3---555-5---000-0---000-0---333-3---555-5---0~~~~~~~~~-----------|
C#|-333-3---555-5---000-0---000-0---333-3---555-5---0~~~~~~~~~-----------|  
----pm.-----pm.-----pm.-----pm.-----pm.-----pm.--------------------------

Guitar 2--Fill after the open C#/Db=================^
D#|----------------------------------1515--------------------------------|
A#|-151515-131313------151515-131313-------------------------------------|
F#|----------------------------------------------------------------------|
C#|---------------1515---------------------------------------------------|
G#|----------------------------------------------------------------------|
C#|----------------------------------------------------------------------|

Guitar 1 ...I cracked my head and broke my.......
D#|----------------------------------------------------------------------|
A#|----------------------------------------------------------------------|
F#|----------------------------------------------------------------------|
C#|-------------------------------------------------------------------7~~|
G#|-33333--33--55555--55--33333--33--55555--55--33333--33--55555--55--7~~|
C#|-33333--33--55555--55--33333--33--55555--55--33333--33--55555--55--7~~|
----pmpm---pm--pmpm---pm--pmpm---pm--pmpm---pm--pmpm---pm--pmpm---pm-----   

Guitar 2
D#|-----0----------0----------0----------0----------0-----------0--------|
A#|-----0----------0----------0----------0----------0-----------0--------|
F#|-----0----------0----------0----------0----------0-----------0--------|
C#|-------------------------------------------------------------------7~~|
G#|-3333---33--5555---55--3333---33--5555---55--3333---33---5555--55--7~~|
C#|-3333---33--5555---55--3333---33--5555---55--3333---33---5555--55--7~~|
----pmpm---pm--pmpm---pm--pmpm---pm--pmpm---pm--pmpm---pm---pmpm--pm-----

Bridge

Guitar 1 (clean)
D#|----------------------------------------------------------------------|
A#|----------------------------------------------------------------------|
F#|----------------------------------------------------------------------|
C#|-8-------3-------4----------------------------------------------------|x2
G#|-8-------3-------4----------------------------------------------------|
C#|-8-------3-------4----------------------------------------------------|

Guitar 2
D#|-----------------11--11--9--9-----------------------------------------|
A#|-11--11--13--13-------------------------------------------------------|
F#|---10--10--10--10--10--10-10-10---------------------------------------|
C#|----------------------------------------------------------------------|x4
G#|----------------------------------------------------------------------|
C#|----------------------------------------------------------------------|

Right Before Chorus
Guitar 1
D#|---------------------------|
A#|--12*-volume-swell>>>>>>>--|
F#|---------------------------|
C#|---------------------------|
G#|---------------------------|
C#|---------------------------|

Chorus 3

Guitar 1&2 (w/ distortion)(strumming not exact)
D#|----------------------------------------------------------------------|
A#|----------------------------------------------------------------------|
F#|----------------------------------------------------------------------|
C#|-3---3---33/5---5--55/7---7--7--7--7---10p9--0------------------------|
G#|-3---3---33/5---5--55/7---7--7--7--7---10p9--0------------------------|
C#|-3---3---33/5---5--55/7---7--7--7--7---10p9--0------------------------|

D#|----------------------------------------------------------------------|
A#|----------------------------------------------------------------------|
F#|----------------------------------------------------------------------|
C#|-3---3--33/5----5--55/7---7--7--7--7--\\\-----------------------------|
G#|-3---3--33/5----5--55/7---7--7--7--7--\\\-----------------------------|
C#|-3---3--33/5----5--55/7---7--7--7--7--\\\-----------------------------|

Guitar 1 ...I cracked my head and broke my.......
D#|----------------------------------------------------------------------|
A#|----------------------------------------------------------------------|
F#|----------------------------------------------------------------------|
C#|-------------------------------------------------------------------0--|
G#|-33333--33--55555--55--33333--33--55555--55--33333--33--55555--55--0--|
C#|-33333--33--55555--55--33333--33--55555--55--33333--33--55555--55--0--|
----pmpm---pm--pmpm---pm--pmpm---pm--pmpm---pm--pmpm---pm--pmpm---pm-----


Guitar 2
D#|-----0----------0----------0----------0----------0-----------0--------|
A#|-----0----------0----------0----------0----------0-----------0--------|
F#|-----0----------0----------0----------0----------0-----------0--------|
C#|-------------------------------------------------------------------0--|
G#|-3333---33--5555---55--3333---33--5555---55--3333---33---5555--55--0--|
C#|-3333---33--5555---55--3333---33--5555---55--3333---33---5555--55--0--|
----pmpm---pm--pmpm---pm--pmpm---pm--pmpm---pm--pmpm---pm---pmpm--pm-----

Guitar 1&2  ..So woe is me...
D#|----------------------------------------------------------------------|
A#|----------------------------------------------------------------------|
F#|----------------------------------------------------------------------|
C#|-333-3---555-5---000-0---000-0---333-3---555-5---0---0---0---0---0----|
G#|-333-3---555-5---000-0---000-0---333-3---555-5---0---0---0---0---0----|
C#|-333-3---555-5---000-0---000-0---333-3---555-5---0---0---0---0---0----|  
----pm.-----pm.-----pm.-----pm.-----pm.-----pm.--------------------------

Guitar 1 ...I cracked my head and broke my.......
D#|----------------------------------------------------------------------|
A#|----------------------------------------------------------------------|
F#|----------------------------------------------------------------------|
C#|-------------------------------------------------------------------7--|
G#|-33333--33--55555--55--33333--33--55555--55--33333--33--55555--55--7--|
C#|-33333--33--55555--55--33333--33--55555--55--33333--33--55555--55--7--|
----pmpm---pm--pmpm---pm--pmpm---pm--pmpm---pm--pmpm---pm--pmpm---pm-----


Guitar 2
D#|-----0----------0----------0----------0----------0-----------0--------|
A#|-----0----------0----------0----------0----------0-----------0--------|
F#|-----0----------0----------0----------0----------0-----------0--------|
C#|-------------------------------------------------------------------7--|
G#|-3333---33--5555---55--3333---33--5555---55--3333---33---5555--55--7--|
C#|-3333---33--5555---55--3333---33--5555---55--3333---33---5555--55--7--|
----pmpm---pm--pmpm---pm--pmpm---pm--pmpm---pm--pmpm---pm---pmpm--pm-----

Guitar 1 (clean)
D#|----------------------------------------------------------------------|
A#|-6--6-66/8--8--8--X---------------------------------------------------|
F#|-5--5-55/7--7--7--X---------------------------------------------------|
C#|-3--3-33/5--5--5--X--0---x3-then---0000000000000000-------------------|
G#|-3--3-33/5--5--5--X--0-------------0000000000000000-------------------|
C#|-3--3-33/5--5--5--X--0-------------0000000000000000-------------------|
--------------------------------------pmpmpmpmpmpmpmpm-------------------

Guitar 1 (w/ distortion)(strumming not exact)
D#|----------------------------------------------------------------------|
A#|----------------------------------------------------------------------|
F#|----------------------------------------------------------------------|
C#|-3---3---33/5---5--55/7---7--7--7--7---10p9--0------------------------|
G#|-3---3---33/5---5--55/7---7--7--7--7---10p9--0------------------------|
C#|-3---3---33/5---5--55/7---7--7--7--7---10p9--0------------------------|

D#|----------------------------------------------------------------------|
A#|----------------------------------------------------------------------|
F#|----------------------------------------------------------------------|
C#|-3---3--33/5----5--55/7---7--7--7--7--\\\-----------------------------|
G#|-3---3--33/5----5--55/7---7--7--7--7--\\\-----------------------------|
C#|-3---3--33/5----5--55/7---7--7--7--7--\\\-----------------------------|

Guitar 2
D#|--------------------------------------11------------------------------|
A#|-14p13-----14p13/11----14p13----14p13/11------------------------------|
F#|----------------------------------------------------------------------|
C#|-------15--------------------15---------------------------------------|
G#|----------------------------------------------------------------------|
C#|----------------------------------------------------------------------|

Guitar 1 ...I cracked my head and broke my.......
D#|----------------------------------------------------------------------|
A#|----------------------------------------------------------------------|
F#|----------------------------------------------------------------------|
C#|----------------------------------------------------------------------|
G#|-33333--33--55555--55--33333--33--55555--55--33333--33--55555---------|
C#|-33333--33--55555--55--33333--33--55555--55--33333--33--55555---------|
----pmpm---pm--pmpm---pm--pmpm---pm--pmpm---pm--pmpm---pm--pmpm----------


Guitar 2
D#|----------------------------------------------------------------------|
A#|----------------------------------------------------------------------|
F#|-6-6/5--5/3--3/6-6/5--5/3--3/6--6/5-----------------------------------|
C#|----------------------------------------------------------------------|
G#|-4-4/3--3/1--1/4-4/3--3/1--1/4--4/3-----------------------------------|
C#|----------------------------------------------------------------------|

Thats all. Corrections are welcome.

Legend:
/=slide 
pm=palm mute
~=hold out 
h=hammer on
p=pull off
X=muted note
12*=harmonic
Tap to rate this tab
# A B C D E F G H I J K L M N O P Q R S T U V W X Y Z