Song name
# A B C D E F G H I J K L M N O P Q R S T U V W X Y Z

Hurt - Fighting Tao tab

Fighting Tao- Hurt


Intro x3
Verse 1 x2
Fill 1 x1
Verse 2 x2
Fill 1 x1
Verse 1 x2
Fill 1 x1
Verse 2 x2
Fill 1 (extend pm part) x1

VIOLIN SOLO

Verse 3 x2

Verse 2 till end

I will eventually figure out the violin solo on guitar and add it.


TABBED BY: Jacob Popowski



                       Intro (add in open d above 3 sometimes)
e|---------------------------------------------------------------------------|
B|---------------------------------------------------------------------------|
G|---------------------------------------------------------------------------|
D|-0-00000-00000-00000-00000-00000-00000-00000-------------0000000000--------|
A|---------------------------------------------33333-33333-------------------|
E|---------------------------------------------------------------------------|

             Verse 1
e|---------------------------------------------------------------------------|
B|---------------------------------------------------------------------------|
G|---------------------------------------------------------------------------|
D|-7----7----7---7----7---7----5---5---5---5--5-5-9---9---9---9---9-9--------|
A|-7----7----7---7----7---7----5---5---5---5--5-5-9---9---9---9---9-9--------|
E|-5--5-5--5-5-5-5--5-5-5-5----3-3-3-3-3-3-3-3333-7-7-7-7-7-7-7--7777--------|
   .  . .  . . . .  . . . .    . . . . . . . .... . . . . . . .  ....

e|---------------------------------------------------------------------------|
B|---------------------------------------------------------------------------|
G|---------------------------------------------------------------------------|
D|7---7---7---7---7-7--------------------------------------------------------|
A|7---7---7---7---7-7--------------------------------------------------------|
E|5-5-5-5-5-5-5--5555--------------------------------------------------------|
  . . . . . . .  ....
                       Fill One
e|---------------------------------------------------------------------------|
B|---------------------------------------------------------------------------|
G|---------------------------------------------------------------------------|
D|-7---7---7-7-7-7-7-7-------------------------------------------------------|
A|-7---7---7-7-7-7-7-7-------------------------------------------------------|
E|-5-5-5-5-5-5-5-5-5-5-------------------------------------------------------|
   . . . . 
         Verse 2 (Strum first three chords)
e|---------------------------------------------------------------------------|
B|---------------------------------------------------------------------------|
G|777777-555555---999999----77-7-7-77-7-7------------------------------------|
D|777777-555555---999999----77-7-7-77-7-7------------------------------------|
A|555555-333333---777777----55-5-5-55-5-5------------------------------------|
E|---------------------------------------------------------------------------|

                        Verse 3
e|---------------------------------------------------------------------------|
B|---------------------------------------------------------------------------|
G|---------------------------------------------------------------------------|
D|-5--3--2--5--3--7----------------------------------------------------------|
A|---------------------------------------------------------------------------|
E|---------------------------------------------------------------------------|
Tap to rate this tab
# A B C D E F G H I J K L M N O P Q R S T U V W X Y Z