Song name
# A B C D E F G H I J K L M N O P Q R S T U V W X Y Z

Hurt - World Aint Right tab

Intro

E-1--1/3--3/5--5-|
A-3--3/5--5/6--6-|
D----------------|
G----------------|
B----------------|
D----------------|

E----------------|
A---3-------3----|
D--2-2-2---2-2-2-|
G-0---0---0---0--|
B----------------|
D-0-------0------|

E----------------|
A---3-------3----|
D--2-2-2---2-2-2-|
G-0---0---0---0--|
B----------------|
D-3-------3------|

finish soon!
Tap to rate this tab
# A B C D E F G H I J K L M N O P Q R S T U V W X Y Z