Song name
# A B C D E F G H I J K L M N O P Q R S T U V W X Y Z

Hurt - Sweet Delilah tab

Help us improve GuitareTab! Take a short survey!
E---------------------------------------------------------------------------|
B-8--8---7--7---5--5---5---7------------------------------------------------|
G--0--0---0--0---0--0---0---0--THIS IS THE VERSE FINGER PICKED--------------|
D---------------------------------------------------------------------------|
A-7-7----5-5----3-3----3---5------------------------------------------------|
E---------------------------------------------------------------------------|
CHORUS ALSO FINGER PICKED
E-8--8--7--7--5--5--3--3----------------------------------------------------|
B--0--0--0--0--0--0--0--0-DO THIS A COUPLE TIMES----------------------------|
G---------------------------------------------------------------------------|
D-7-7---5-5---4-4---2-2-----------------------------------------------------|
A---------------------------------------------------------------------------|
E---------------------------------------------------------------------------|
                             I DO NOT HAVE THE SOLO YET
E-2--2--2--2--7---7--5--3--2-------------------------------------------------|
B--0--0--0--0----------------------------------------------------------------|
G----------------------------------------------------------------------------|
D-1-1---1-1---9---9--7--5--1-------------------------------------------------|
A----------------------------------------------------------------------------|
E----------------------------------------------------------------------------|
Related for Sweet Delilah tab