Song name
# A B C D E F G H I J K L M N O P Q R S T U V W X Y Z

Hurt - On The Radio tab


VERSE

Guitar 1

e|------------------------------------------------|
B|------------------------------------------------|
G|------------------------------------------------|
D|-------5-----------5-----------5-----------5----|
A|-----8-----8-----8-----8-----8-----8-----8----—8|
E|-6-----------6-----------6-----------6----------|


Guitar 2

E|------------------------------------------------|
B|------------------------------------------------|
G|------------------------------------------------|
D|------------------------------------------------|
A|------------------------------------------------|
E|-6-----------6/8---------8-10-3------3---3---3--|

Guitar 3 (Clean)

e|------------------------------------------------|
B|------------------------------------------------|
G|------------------------------------------------|
D|-0---3-----3-0---3-----0-3---0-----0---0---0---0|
A|------------------------------------------------|
E|------------------------------------------------|



CHORUS

Guitar 1

e|---------3-----------3-----------3-----------3--|
B|-----1p0---------1p0---------1p0---------1p0----|
G|-3-----------2-----------0-----------0----------|
D|------------------------------------------------|
A|------------------------------------------------|
E|------------------------------------------------|

Oh…

[Listen for when to palm mute each time.]

e|------------------------------------------------|
B|------------------------------------------------|
G|------------------------------------------------|
D|-5-5---5----------------5-5---5-----------------|
A|-5-5---5----------------5-5---5-----------------|
E|-3-3---3----------------3-3---3-----------------|

VERSE 2

I don’t wanna miss you anymore…


e|------------------------------------------------|
B|------------------------------------------------|
G|-----7-----7-----7-----7-------0-----------0----|
D|---8-----8-----8-----8-----0-------0---0-------0|
A|-5-----5-----8-----8----------------------------|
E|-------------------------3---3-------3---3------|

‘Cause today is the first time…

e|------------------------------------------------|
B|------------------------------------------------|
G|------------------------------------------------|
D|-5---5-5-----5---5-5-----5---5-5-----3---3-3----|
A|-5---5-5-----3---3-3-----5---5-5-----3---3-3----|
E|-3---3-3-----3---3-3-----3---3-3-----5---5-5----|

e|------------------------------------------------|
B|------------------------------------------------|
G|------------------------------------------------|
D|-6---6-------8---8------10----------------------|
A|-6---6-------8---8------10----------------------|
E|-8---8------10--10-------8----------------------|

Mix and match all of parts in the appropriate 
place and you can play On the Radio.

VIOLIN SOLO

[Rough guitar version, timing is not charted out
as well as it is with the other parts because
it would have been too time consuming for me to
chart it AND tend to my cattle.]

e|------------8---7/8----11/10/8----10/9-9--------|
B|----6/7/5/6------------------------------8------|
G|5/7---------------------------------------------|
D|------------------------------------------------|
A|------------------------------------------------|
E|------------------------------------------------|

e|------------14----15----18-----18/13/14/15------|
B|-4-16-16-------13----13-------------------------|
G|------------------------------------------------|
D|------------------------------------------------|
A|------------------------------------------------|
E|------------------------------------------------|

e|-18/15---------20/18/17/15---22/18/17/15--------|
B|------------------------------------------------|
G|------------------------------------------------|
D|------------------------------------------------|
A|------------------------------------------------|
E|------------------------------------------------|

e|-22/18/17/15-----22/15/18/14-14/15--------------|
B|------------------------------------12/15/12----|
G|------------------------------------------------|
D|------------------------------------------------|
A|------------------------------------------------|
E|------------------------------------------------|

e|------------------------------------------------|
B|-12/15/12---------------------------------------|
G|------------------------------------------------|
D|------------------------------------------------|
A|------------------------------------------------|
E|------------------------------------------------|

The 14/15 after the 7/8 is very quiet and the 14
is barely even audible.

e|------14/15-------------------------------------|
B|-7/8-----------------13-15-16-15-13-15-16-18-15-|
G|------------------------------------------------|
D|------------------------------------------------|
A|------------------------------------------------|
E|------------------------------------------------|

e|------------6/7-------10-----10/11---11/10-11/15|
B|-14/15/16/15---4/8------------------------------|
G|---------------------8--8-7-8-------------------|
D|------------------------------------------------|
A|------------------------------------------------|
E|------------------------------------------------|

I put dashes around the slash to signify you need
to wait an extra long time before sliding.

e|-18/15-19/20-/-14/15-18-14/15-------------------|
B|------------------------------------------------|
G|------------------------------------------------|
D|------------------------------------------------|
A|------------------------------------------------|
E|------------------------------------------------|

e|-10/8-11/10/8/10/8/7-8/7------------------------|
B|------------------------------------------------|
G|------------------------------------------------|
D|------------------------------------------------|
A|------------------------------------------------|
E|------------------------------------------------|

e|------------------------------------------------|
B|-9/11/9/7/9/-/8/10/8/6/7/-----------------------|
G|------------4------------4----------------------|
D|------------------------------------------------|
A|------------------------------------------------|
E|------------------------------------------------|

e|------------------------------------------------|
B|-8---8-----8---8------7/8/7/8---------7/8/7/8---|
G|-------4---------4------------4-------------4---|
D|------------------------------------------------|
A|------------------------------------------------|
E|------------------------------------------------|

Repeat the very last riff until end of song.

YEAH!
Tap to rate this tab
 
# A B C D E F G H I J K L M N O P Q R S T U V W X Y Z