Song name
# A B C D E F G H I J K L M N O P Q R S T U V W X Y Z

Hurt - The Old Mission tab

Tip before starting this song: Barring notes is annoying and considering you 
don't use anything before the second fret, you're better off with a capo 
on the second fret and holding down just the third fret on the B string.

This song is in double drop D tuning.


VERSE

D|----2----------------------------------------------------------------------|
B|---33---3------------------------------------------------------------------|
G|---------2-----------------------------------------------------------------|
D|-----------2---------------------------------------------------------------|
A|---------------------------------------------------------------------------|
D|-2----2--------------------------------------------------------------------|

This repeats throughout the verse.


CHORUS

D|-2-------------------------------------------------------------------------|
B|-3-------------------------------------------------------------------------|
G|-2-------------------------------------------------------------------------|
D|-2-------------------------------------------------------------------------|
A|-2-------------------------------------------------------------------------|
D|-2-------------------------------------------------------------------------|

Repeat that strum, hitting around the same place J. Loren does.
Tap to rate this tab
 
# A B C D E F G H I J K L M N O P Q R S T U V W X Y Z