Hurt - Sweet Delilah tab

E----------------------------------------|
B-8--8---7--7---5--5---5---7-------------|
G--0--0---0--0---0--0---0---0-----------|
D----------------------------------------|
A-7-7----5-5----3-3----3---5-------------|
E----------------------------------------|


E-8--8--7--7--5--5--3--3-----------------|
B--0--0--0--0--0--0--0--0----------------|
G----------------------------------------|
D-7-7---5-5---4-4---2-2------------------|
A----------------------------------------|
E----------------------------------------|


E-2--2--2--2--7---7--5--3--2-------------|
B--0--0--0--0----------------------------|
G----------------------------------------|
D-1-1---1-1---9---9--7--5--4-------------|
A----------------------------------------|
E----------------------------------------|

E--- -----------------------------------------|
B----3h5--5--5--5p3--0-----------5------------|
G---------------------2--0--2s4-----------7---|
D-------------------------------------4h5-----|
A---------------------------------------------|
E---------------------------------------------|

E------------------------------|
B----12--10--8--7--8-----------|
G----12--11--9--7--9---79-7---|
D------------------------------|
A------------------------------|
E------------------------------|

E------------------------------|
B----4p2p0-----0--2--0-----0---|
G-----------4----------4-------|
D------------------------------|
A------------------------------|
E------------------------------|

E-------------------------------------------------|
B-------------------------------------------------|
G---------------9---------------------------------|
D--------7h9h10-----------7h9h10---------9h10h12--|
A--7h9h10-----------7h9h10--------9h10h12---------|
E-------------------------------------------------|

E--- --------------------------------------|
B------------------------------------------|
G----12-11p9-119s7-9-7s4-2-0-----------7--|
D-----------------------------2-0-2-2s4----|
A------------------------------------------|
E------------------------------------------|
Tap to rate this tab
 
# A B C D E F G H I J K L M N O P Q R S T U V W X Y Z