Hurt - The Old Mission tab

-------------------------------------------------------------------------------
			     The Old Mission - Hurt
-------------------------------------------------------------------------------
Tabbed by:Tuddles
Email:alacilla@yahoo.com

Tuning:standard

The strumming is DDUU throughout the whole song
      G                      Em
e|--------3-3---------3-3---------0-0---------0-0---------|
B|--------3-3---------3-3---------0-0---------0-0---------|
G|--------0-0---------0-0---------0-0---------0-0---------|
D|--0-0---------0-0---------2-2---------2-2---------------|
A|--2-2---------0-0---------2-2---------2-2---------------|
E|--3-3---------2-2---------0-0---------0-0---------------|
    D D   U U   D D   U U   D D   U U   D D   U U

     G                      Em
e|--------3-3---------3-3---------0-0---------0-0---------|
B|--------3-3---------3-3---------0-0---------0-0---------|
G|--------0-0---------0-0---------0-0---------0-0---------|
D|--0-0---------0-0---------2-2---------2-2---------------|
A|--2-2---------0-0---------2-2---------2-2---------------|
E|--3-3---------2-2---------0-0---------0-0---------------|
      G                      Em
e|--------3-3---------3-3---------0-0---------0-0---------|
B|--------3-3---------3-3---------0-0---------0-0---------|
G|--------0-0---------0-0---------0-0---------0-0---------|
D|--0-0---------0-0---------2-2---------2-2---------------|
A|--2-2---------0-0---------2-2---------2-2---------------|
E|--3-3---------2-2---------0-0---------0-0---------------|

      C
e|--------0-0---------0-0---0----------------|
B|--------1-1---------1-1---1----------------|
G|--------0-0---------0-0---0----------------|
D|--2-2---------2-2---------2----------------|
A|--3-3---------3-3---------3----------------|
E|--0-0---------0-0--------------------------|

Repeat that through the whole song, you'll have to listen to the song to know when to play
Tap to rate this tab
 
# A B C D E F G H I J K L M N O P Q R S T U V W X Y Z