Song name
# A B C D E F G H I J K L M N O P Q R S T U V W X Y Z

Hurt - Thank You For Listening tab

-------------------------------------------------------------------------------
Thank you For Listening - Hurt
-------------------------------------------------------------------------------
Tabbed by: WolfbainFox
Email: thomasgreene101@yahoo.com

Tuning: DADGBE (Drop D)

	Intro Riff 0:00 Crunch
E|-----------------------------------------------------------------------|
B|-----------------------------------------------------------------------|
G|-----------------0-----------------------0-----2-----------------------|x2
D|--------4-----4-----4--------------0--2-----2----/4--5--5p4--2p0-------|
A|-----2-----2--------------0--2--3--------------------------------------|
D|--2--------------------------------------------------------------------|

Verse 1 0:14
E|-------------------------------------------------------------------------|
B|-------------------------------------------------------------------------|
G|--4-----5-----4-----5-2h4-2p0-5-4-----5--5--4-----5---7-7--7--7-7--------|
D|--4-----5-----4-----5---------5-4-----5--5--4-----5---7-7--7--7-7--------|
A|--2-----3-----2-----3---------3-2-----3--3--2-----3---5-5--5--5-5--------|
D|--2-----3-----2-----3---------3-2-----3-----2-----3---5-5--5--5-5--------|

E|-------------------------------------------------------------------------|
B|-------------------------------------------------------------------------|
G|--4444--4444--44xx-5555--5555--55xx--4444--4444--44xx--5555--5555--55xx--|
D|--4444--4444--44xx-5555--5555--55xx--4444--4444--44xx--5555--5555--55xx--|
A|--2222--2222--22xx-3333--3333--33xx--2222--2222--22xx--3333--3333--33xx--|
D|--2222--2222--22xx-------------------2222--2222--22xx--------------------|

E|-------------------------------------------------------------------------|
B|-------------------------------------------------------------------------|
G|--4--------4--------4--5--55-----------4--------5------------------------|
D|--4--------4--------4--5--55--7--77-7---4------5-------------------------|
A|--2--2222--2--2222--2--3--33--7--77-7----2----3--------------------------|
D|--2--2222--2--2222--2---------7--77-7-----2--3---------------------------|

Chorus-Flowing 1:10
E|-----------------------------------------------------------------------|
B|-----------------------------------------------------------------------|
G|-----------------------------------------------------------------------|x4
D|--5-----5-----5-----55----55----5----/9-----9-----9-----99----99-----9\|
A|--5-----5-----5-----55----55----5----/9-----9-----9-----99----99-----9\|
D|--5-----5-----5-----55----55----5----/9-----9-----9-----99----99-----9\|

Post Chorus-Staccato 1:35 
E|-----------------------------------------------------------------------|
B|-----------------------------------------------------------------------|
G|-----------------------------------------------------------------------|x2
D|--5-----5-----5-----55----55----5----/9-----9-----9-----99----99-----9\|
A|--5-----5-----5-----55----55----5----/9-----9-----9-----99----99-----9\|
D|--5-----5-----5-----55----55----5----/9-----9-----9-----99----99-----9\|

Verse 2 1:48
E|-------------------------------------------------------------------------|
B|-------------------------------------------------------------------------|
G|--4--44--4--44--44--5--55--5--55--55--4--44--4--44--44--5--55--7--77-7---|
D|--4--44--4--44--44--5--55--5--55--55--4--44--4--44--44--5--55--7--77-7---|
A|--2--22--2--22--22--3--33--3--33--33--2--22--2--22--22--3--33--5--55-5---|
D|--2--22--2--22--22--------------------2--22--2--22--22---------5--55-5---|

E|-------------------------------------------------------------------------|
B|-------------------------------------------------------------------------|
G|--4--44--4--44--44--5--55--5--55--55--4--44--4--44--44--5--55------------|
D|--4--44--4--44--44--5--55--5--55--55--4--44--4--44--44--5--55--7--77-7---|
A|--2--22--2--22--22--3--33--3--33--33--2--22--2--22--22--3--33--7--77-7---|
D|--2--22--2--22--22--------------------2--22--2--22--22---------7--77-7---|

E|-------------------------------------------------------------------------|
B|-------------------------------------------------------------------------|
G|--4--44--4--44--44--5--55--5--55--55--4--44--4--44--44--5--55------------|
D|--4--44--4--44--44--5--55--5--55--55--4--44--4--44--44--5--55--7--77-7---|
A|--2--22--2--22--22--3--33--3--33--33--2--22--2--22--22--3--33--7--77-7---|
D|--2--22--2--22--22--------------------2--22--2--22--22---------7--77-7---|

E|-------------------------------------------------------------------------|
B|-------------------------------------------------------------------------|
G|--4--------4--------4--5--55-----------4--------5------------------------|
D|--4--------4--------4--5--55--7--77-7---4------5-------------------------|
A|--2--2222--2--2222--2--3--33--7--77-7----2----3--------------------------|
D|--2--2222--2--2222--2---------7--77-7-----2--3---------------------------|

Chorus-Flowing 2:39
E|-----------------------------------------------------------------------|
B|-----------------------------------------------------------------------|
G|-----------------------------------------------------------------------|x4
D|--5-----5-----5-----55----55----5----/9-----9-----9-----99----99-----9\|
A|--5-----5-----5-----55----55----5----/9-----9-----9-----99----99-----9\|
D|--5-----5-----5-----55----55----5----/9-----9-----9-----99----99-----9\| 

Post Chorus-Staccato 3:04
E|-----------------------------------------------------------------------|
B|-----------------------------------------------------------------------|
G|-----------------------------------------------------------------------|x2
D|--5-----5-----5-----55----55----5----/9-----9-----9-----99----99-----9\|
A|--5-----5-----5-----55----55----5----/9-----9-----9-----99----99-----9\|
D|--5-----5-----5-----55----55----5----/9-----9-----9-----99----99-----9\|

Bridge 3:17
E|-----------------------------------------------------------------------|
B|-----------------------------------------------------------------------|
G|-----------------------------------------------------------------------|x2
D|--5-----5-----5-----55----55----5----/9-----9-----9-----99----99-----9\|
A|--5-----5-----5-----55----55----5----/9-----9-----9-----99----99-----9\|
D|--5-----5-----5-----55----55----5----/9-----9-----9-----99----99-----9\|

Chorus-Flowing 3:29
E|-----------------------------------------------------------------------|
B|-----------------------------------------------------------------------|
G|-----------------------------------------------------------------------|x4
D|--5-----5-----5-----55----55----5----/9-----9-----9-----99----99-----9\|
A|--5-----5-----5-----55----55----5----/9-----9-----9-----99----99-----9\|
D|--5-----5-----5-----55----55----5----/9-----9-----9-----99----99-----9\| 

	Solo #1 3:54 Crunch
E|-------------------------------------------------------------------------|
B|-------------------------------------------------------------------------|
G|-----7h9~~~--7h9-6-7p6~~~------------------------------------------------|
D|--7h9----------------------777h9-8h9~~~--7br-5h7p5----------7------------|
A|--------------------------------------------------7~~~--5h7---7p5h7~~-5h7|
D|-------------------------------------------------------------------------|

E|-------------------------------------------------------------------------|
B|-------------------------------10--12--10---------12--12--10--10b~~~-----|
G|---------------------7--9--12--------------12----------------------------|
D|------------5--7-/9------------------------------------------------------|
A|------5--7---------------------------------------------------------------|
D|--5h7--------------------------------------------------------------------|

4:21 Metal
E|-------------------------------------------------------------------------|
B|----------------------------------------------------------8------12\-----|
G|--12--12--9---12--12--9--12--12--9---12--12--9--/9--9-7-----9~~--12\-----|
D|--------------------------------------------------------9----------------|
A|-------------------------------------------------------------------------|
D|-------------------------------------------------------------------------|

E|-------------------------------------------------------------------------|
B|-------------------------------------------------------------------------|
G|-----------------------------------12--12--9---12--12--9--12--12--9------|
D|-----------------------------5~~~----------------------------------------|
A|--7-5---------5h7-----5h7~~~---------------------------------------------|
D|------9-7-5h7-----7h9----------------------------------------------------|

E|-------------------------------------------------------------------------|
B|--15p14p12h14--12--------------------------------------------------------|
G|---------------12-----777/999\77-----------------------------------------|
D|---------------------------------9--7-5-7-5h7~~~-5-----------------------|
A|----------------------------------------------------5h7p5-----------5h7--|
D|-----------------------------------------------------------5-----5h7-----|

Interlude 4:46 Clean
E|-------------------------------------------------------------------------|
B|-------------------------------------------------------------------------|
G|--/9~~~-7~-6~--/9~~~-7~-6~--/9~~~-7~-6~--/9-9999-9-9999-99-11-11-11-12-12|
D|-------------------------------------------------------------------------|
A|-------------------------------------------------------------------------|
D|-------------------------------------------------------------------------|

	Solo #2 5:11 Metal
E|-----12-12----12-12----12-12----12-12----12-12----12-12----12-12----12---|
B|--11b------11b------11b------11b------11b------11b------11b------11b-----|
G|-------------------------------------------------------------------------|
D|-------------------------------------------------------------------------|
A|-------------------------------------------------------------------------|
D|-------------------------------------------------------------------------|

E|--12p10--------12~~~~~h15p12~~~h15p12------------------------------------|
B|-------12p10-------------------------------------------------------------|
G|------------12-----------------------------------------------------------|
D|---------------------------------------14--1414-14--5-555~~--2--/14--14--|
A|---------------------------------------14--1414-14--5-555~~--2--/14--14--|
D|---------------------------------------14--1414-14--5-555~~--2--/14--14--|

E|--------------------191919--1515151515151515-----------------------------|
B|---------------------------------------------17~~~--17-15----------------|
G|----------------------------------------------------------16-14-14b~~14b~|
D|--9999/12-12-12/14-------------------------------------------------------|
A|-------------------------------------------------------------------------|
D|-------------------------------------------------------------------------|

E|-------------------------------------------------------------------------|
B|--15b~~----------15b~~---------------------------------------------------|
G|-------14b~~14b~~-----14b~~12b~~12-9-12-9-12-9-12-9-12-------------------|
D|-------------------------------------------------------------------------|
A|-------------------------------------------------------------------------|
D|-------------------------------------------------------------------------|

E|-------------------------------------------------------------------------|
B|-------------------------------------------8-----8/12--12p10-------------|
G|-12-9-12-9-12-9-12-9-12----7-8-9-7-8-9-7-9---7-9------------12p9~~~~~----|
D|-------------------------------------------------------------------------|
A|-------------------------------------------------------------------------|
D|-------------------------------------------------------------------------|

Outro 5:49
E|-----------------------------------------------------------------------|
B|-----------------------------------------------------------------------|
G|-----------------------------------------------------------------------|x2
D|--14-14xx---/12--12121212---/7-77xx--/5-55-5---2~~~-22-----------------|
A|--14-14xx---/12--12121212---/7-77xx--/5-55-5---2~~~-22-----------------|
D|--14-14xx---/12--12121212---/7-77xx--/5-55-5---2~~~-22-----------------|

E|-----------------------------------------------------------------------|
B|-----------------------------------------------------------------------|
G|-----------------------------------------------------------------------|
D|--14-14xx---/12--12121212---7-77xx--/5--0--/5--2~~~~~~~~~~~------------|
A|--14-14xx---/12--12121212---7-77xx--/5--0--/5--2~~~~~~~~~~~------------|
D|--14-14xx---/12--12121212---7-77xx--/5--0--/5--2~~~~~~~~~~~------------|

************************************

| /   slide up
| \   slide down
| h   hammer-on
| p   pull-off
| ~   vibrato
| +   harmonic
| x   Mute note
| b   Bend
| pb  Pre-bend
| br  Bend release
| pbr Pre-bend release
| brb Bend release bend

************************************

                        Thank you for Listening Lyrics
            Lyrics from mp3lyrics.org (http://mp3lyrics.org/4MI)

Like the others say, i can know your pain
But i couldn't get used to it
As another bird has gone
It's like seven years alone
I just couldn't get used to it
And i believe in what i see here in your eyes
And i believe in what i see here in your eyes
I believe in what is real
The only thing is pain and it's so real
And i think you for listening to how i feel
'cause it's just what i needed, like the pain that made it real
And i finally found out how, because you finally showed me how
It feels to be you, and to be me... and to be me... and to be
Fast forward yesterday, to the things i wouldn't say
'cause i couldn't get used to it
Guess everything's my fault and i shouldn't do nothin' at all
'cause i couldn't get used to it.
'cause i believe in what i see here in your eyes
I believe in what i see 'cause i believe in what is real
If the only thing is pain then it's "so real"
And i thank you for listening to how i feel
'cause it's just what i needed, like the pain that made it real
And i finally found out how, because you finally showed me how
It feels to be you, and to be me... and to be me... and to be...
If i could i would i'd do anything to take back the
hurt, frustration and the pain it brings
Some of those times you sat alone and realized "fuck!"
That's not the way you should have wanted it
If all of my actions show
It was good to be you and to be me again. (whisling) G# G A B D B D B
            (Guitar Solo 1)
If all of my actions show, then all of the
truth be told and all of my 
            (Guitar Solo 2)


Thank you for (listening) reading this tab, if you have any suggestions please email me. 
Tap to rate this tab
 
# A B C D E F G H I J K L M N O P Q R S T U V W X Y Z