Song name
# A B C D E F G H I J K L M N O P Q R S T U V W X Y Z

Hurt - World Aint Right tab

Artist: Hurt
Album: Goodbye To The Machine
Song: World Ain't Right (feat. Shaun Morgan)
The song is played with two guitars. This is tabed for one.
I may try to incorperate the other guitar in later, but for now this will suffice.
Fingerpick.

Tuning: Drop D

Intro
e|1-1/3-3/5-5--5-5--5\3-3\1/3--3-3--3---5-3------|
B|3-3/5-5/6-6---6-6-6\5-5\3/5---5-5-5-5-5---3--2-|
G|------------------------------------------0--2-|
D|-----------------------------------------------|
A|------------------------------------------1--0-|
D|----------0-------0-0-----3-------3---3--------|

Verse x2 (J. Loren)
e|-----------------------------------------------------------------|
B|---3--3----3--3----3--3----3--3----3--3----3--3----3--3----3--3--|
G|--2--2-2--2--2-2--2--2-2--2--2-2--0--0-0--0--0-0--0--0-0--0--0-0-|
D|-----------------------------------------------------------------|
A|--------------------------------3-------3-------1-------3--------|
D|0-------0-------3-------3----------------------------------------|

Bridge
e|---------1-1/3-3/5--5-5--5\3-3\1/3--3-3--3---5-3-----------3---5--3--|
B|---3--3--3-3/5-5/6---6-6-6\5-5\3/5---5-5-5-5-5----3--3--3--5-5-5-5-5-|
G|--2--2-2------------------------------------------0-0--0-0-----------|
D|---------------------------------------------------------------------|
A|--------------------------------------------------1------------------|
D|0----------------0-------0-0-----3-------3---3-------------3---3-----|

e|---------3---5--3-----|
B|3--3--3--5-5-5-5-5--3-|
G|0-0--0-0------------2-|
D|----------------------|
A|1---------------------|
D|---------3---3------0-|

Verse (Shaun)
e|-----------------------------------------------------------------|
B|---3--3----3--3----3--3----3--3----3--3----3--3----3--3----3--3--|
G|--2--2-2--2--2-2--2--2-2--2--2-2--2--2-2--2--2-2--0--0-0--0--0-0-|
D|-----------------------------------------------------------------|
A|------------------------------------------------3-------3--------|
D|0-------0-------0-------0-------3-------3------------------------|

e|-----------------|
B|---3--3----3--3--|
G|--0--0-0--0--0-0-|
D|-----------------|
A|1-------3--------|
D|-----------------|

e|-----------------------------------------------------------------|
B|---3--3----3--3----3--3----3--3----3--3----3--3----3--3----3--3--|
G|--2--2-2--2--2-2--2--2-2--2--2-2--0--0-0--0--0-0--0--0-0--0--0-0-|
D|-----------------------------------------------------------------|
A|--------------------------------3-------3-------1-------3--------|
D|0-------0-------3-------3----------------------------------------|

Bridge
e|---------1-1/3-3/5--5-5--5\3-3\1/3--3-3--3---5-3-----------3---5--3--|
B|---3--3--3-3/5-5/6---6-6-6\5-5\3/5---5-5-5-5-5----3--3--3--5-5-5-5-5-|
G|--2--2-2------------------------------------------0-0--0-0-----------|
D|---------------------------------------------------------------------|
A|--------------------------------------------------1------------------|
D|0----------------0-------0-0-----3-------3---3-------------3---3-----|

Chorus
  (Bb)    (A)   I'll work on the more
e|-1-----------|   eleborate part later,
B|-3-------2---|  unless someone wants to
G|-3-------2---|    do it for me.
D|-3-------2---|
A|-1-----------|
D|-------------|

Verse (J. Loren)
e|------------------------------------------------------------|
B|---3--3----3--3----3--3----3--3----3--3----3--3----3--3--3--|
G|--2--2-2--2--2-2--2--2-2--2--2-2--0--0-0--0--0-0--0--0-0-0--|
D|------------------------------------------------------------|
A|--------------------------------3-------3-------1--------3--|
D|0-------0-------3-------3-----------------------------------|

Bridge
e|---------1-1/3-3/5--5-5--5\3-3\1/3--3-3--3---5-3-----------3---5--3--|
B|---3--3--3-3/5-5/6---6-6-6\5-5\3/5---5-5-5-5-5----3--3--3--5-5-5-5-5-|
G|--2--2-2------------------------------------------0-0--0-0-----------|
D|---------------------------------------------------------------------|
A|--------------------------------------------------1------------------|
D|0----------------0-------0-0-----3-------3---3-------------3---3-----|

Chorus
  (Bb)    (A)
e|-1-----------|
B|-3-------2---|
G|-3-------2---|
D|-3-------2---|
A|-1-----------|
D|-------------|

Ending (J. Loren)
e|------------------------------------------------------------0--|
B|---3--3----3--3----3--3----3--3----3--3----3--3----3--3--3--3--|
G|--2--2-2--2--2-2--2--2-2--2--2-2--0--0-0--0--0-0--0--0-0-0--2--|
D|------------------------------------------------------------0--|
A|--------------------------------3-------3-------1--------3--0--|
D|0-------0-------3-------3-----------------------------------0--|
Tap to rate this tab
# A B C D E F G H I J K L M N O P Q R S T U V W X Y Z