Song name
# A B C D E F G H I J K L M N O P Q R S T U V W X Y Z

Hurt - That Such A Thing tab

That (Such A Thing)
by Hurt
from Goodbye To The Machine


Here is the tab for That (Such A Thing), I did not add the strumming patterns but 
it's easy enough to figure out.


Intro/Verse
E|-------------2--|-5---4---2---------|--5-----------2--|--5---4---2--|
B|-------------2--|-5---4---2---0-0---|--5-----------2--|--5---4---2--|
G|-6--6/8--8---2--|-6---4---2---4-3---|--6--6/8--8---2--|--6---4---2--|
D|-7--7/9--9---4--|-7---6---4-------4-|--7--7/9--9---4--|--7---6---4--|x2
A|-7--0----0---4--|-7---6---4---------|--7--0----0---4--|--7---6---4--|
E|-5-----------2--|-5---4---2---------|--5-----------2--|--5---4---2--|

Pre-Chorus
E|--0--------0--|
B|--0--------0--|
G|--1--------8--|
D|--2--------9--|
A|--2--------7--|x2
E|--0--------0--|

E|--5----2----|--5----4----2--|
B|--5----2----|--5----4----2--|
G|--6----2----|--6----4----2--|
D|--7----4----|--7----6----4--|
A|--7----4----|--7----6----4--|
E|--5----2----|--5----4----2--|

E|-----------------2------|--5----4----2--|
B|-----------------2------|--5----4----2--|
G|--6-----6/8--8---2------|--6----4----2--|
D|--7-----7/9--9---4------|--7----6----4--|
A|--7-----0----0---4------|--7----6----4--|
E|--5--------------2------|--5----4----2--|

E|--0--------0--|
B|--0--------0--|
G|--1--------8--|
D|--2--------9--|
A|--2--------7--|x2
E|--0--------0--|

Chorus
E|--0----0-------|x4  |--5--|    |--0---------0--|x2  |--0--|
B|--0----0----2--|    |--5--|    |--0----2----0--|    |--0--|
G|--2----1----4--|    |--6--|    |--1----4----2--|    |--1--|
D|--2----2----4--|    |--7--|    |--2----4----2--|    |--2--|
A|--0----2----2--|    |--7--|    |--2----2----0--|    |--2--|
E|-------0-------|    |--5--|    |--0------------|    |--0--|

Verse

Pre-Chorus

Chorus 2
E|--0----0-------|x4  |--5--|   (x2)
B|--0----0----2--|    |--5--|           
G|--2----1----4--|    |--6--|           
D|--2----2----4--|    |--7--|           
A|--0----2----2--|    |--7--|           
E|-------0-------|    |--5--|           

End
E|--0---------0--|x2  |--4--4--5------|--0--|
B|--0----2----0--|    |--5--4--5------|--0--|
G|--1----4----2--|    |--6--4--6------|--1--|
D|--2----4----2--|    |--6--6--7------|--2--|
A|--2----2----0--|    |--4--6--7------|--2--|
E|--0------------|    |-----4--5------|--0--|
Tap to rate this tab
# A B C D E F G H I J K L M N O P Q R S T U V W X Y Z