Song name
# A B C D E F G H I J K L M N O P Q R S T U V W X Y Z

Hurt - Danse Russe tab

Help us improve GuitareTab! Take a short survey!
----------------------------------------------------------------------------
			  DANSE RUSSE SOLO - Hurt
----------------------------------------------------------------------------
Tabbed by: Mike
Tuning:Standard
Album: Vol. 1

e|---------------------------------------------------------------------------|
B|--0h2-3-3h5-2-2h3-2h3p2p0--0h2-3-3h5-2-2h3-2h3p2p0---0-0-0-0-0-------------|
G|--------------------------------------------------------------2-0----------|
D|-4------------------------4--------------------------------------4-2-0-2/4-|
A|---------------------------------------------------------------------------|
E|---------------------------------------------------------------------------|

e|--------------------------------------------------------------------------|
B|-----------------------------------------0-2-3-3-5-2-2-3-2p0---0-2-3-3-5--|
G|--------------------------------------------------------------------------|
D|2-2-2h4-0----------------------0-2-4-4-4---------------------4------------|
A|---------2-2-2-2-2-2-4-4-4-4-4--------------------------------------------|
E|--------------------------------------------------------------------------|

e|----------------------------------------12+-------------------------------|
B|-2-2h3-2h3p2p0---0h2-3-2-0-5-3-2-3p2--------------------------------------|
G|--------------------------------------------------------------------------|
D|---------------4----------------------------------------------------------|
A|--------------------------------------------------------------------------|
E|--------------------------------------------------------------------------|
 Be sure to listen to the song to get the tempo and speed of the hammers just right.

| /  slide up
| \  slide down
| h  hammer-on
| p  pull-off
| ~  vibrato
| +  harmonic
| x  Mute note
============================================================================
Related for Danse Russe tab