Song name
# A B C D E F G H I J K L M N O P Q R S T U V W X Y Z

Hurt - Unkind tab

Band: Hurt
Song : Unkind
Album : Vol. 1
Tuning : Db Ab Db Gb Bb eb

Well, I've gotten numerous messages from UGer's asking me to 
tab this song out. I'm sorry it's taken awhile but, Here it 
is at last. The tab for Unkind. I tried my best with this tab 
and I know it's missing the second guitar part in the intro/outro 
and the riff in the break. This tab is not 100% complete but, 
it's close. Enjoy it nonetheless.

Note : An easier way to tune to Db would be to capo the first fret
and tune to DADGBe. This is only for those of you who aren't sure of
how to tune to Db yet or an easy alternative.

Intro ( 0:00 - 0:20 )
|-6h8-6-8----9-9p8-8p6-6p4-6h8-8-6-|-11-11p9-9p8-6p4-6h8-6-8-|
|----------------------------------|-------------------------|
|----------------------------------|-------------------------|
|----------------------------------|-------------------------|
|----------------------------------|-------------------------|
|----------------------------------|-------------------------|

Intro ( Continued )
|-6-6p4-4p3-3--3h4-3h4-|-4-3------------|
|----------------------|-----4----------|
|----------------------|----------3/5-3-|
|----------------------|----------------|
|----------------------|----------------|
|----------------------|----------------|

Verse ( 0:20 - 0:32 )
|---------------------------------------|
|---------------------------------------|
|---------------------------------------|
|-33-xx-xx--33-xx-xx-44-xx-xx--66-xx-xx-|
|-33-xx-xx--33-xx-xx-44-xx-xx--66-xx-xx-|
|-33-xx-xx--33-xx-xx-44-xx-xx--66-xx-xx-|

Pre-Chorus ( 0:32 - 0:42 )
|------------------------------------|
|------------------------------------|
|------------------------------------|
|-3333333333333333-44444444-11111111-|
|-3333333333333333-44444444-11111111-|
|-3333333333333333-44444444-11111111-|

Chorus ( 0:42 - 1:04 )
I didn't tab out how many times to strum each chord.
It just alternates each bar. Nothing really hard.
|--------------|--------------|
|--------------|--------------|
|--------------|--------------|
|-3----8----11-|-3----11----8-|
|-3----8----11-|-3----11----8-|
|-3----8----11-|-3----11----8-|

Verse 2 ( 1:04 - 1:14 )
|---------------------------------------|
|---------------------------------------|
|---------------------------------------|
|-33-xx-xx--33-xx-xx-44-xx-xx--66-xx-xx-|
|-33-xx-xx--33-xx-xx-44-xx-xx--66-xx-xx-|
|-33-xx-xx--33-xx-xx-44-xx-xx--66-xx-xx-|

Pre-Chorus 2 ( 1:14 - 1:25 )
|------------------------------------|
|------------------------------------|
|------------------------------------|
|-3333333333333333-44444444-11111111-|
|-3333333333333333-44444444-11111111-|
|-3333333333333333-44444444-11111111-|

Chorus 2 ( 1:25 - 2:00 )
|--------------|--------------|
|--------------|--------------|
|--------------|--------------|
|-3----8----11-|-3----11----8-|
|-3----8----11-|-3----11----8-|
|-3----8----11-|-3----11----8-|

Break ( 2:00 - 2:18 )
This part is mostly bass and drums. There is a little
guitar riff going on but, I haven't tabbed it yet.

Bridge ( 2:18 - 2:39 )
|-------------------------------------------|
|-------------------------------------------|
|-------------------------------------------|
|-55555-55555-55-55-66666-66666-11-11-11-11-|
|-55555-55555-55-55-66666-66666-11-11-11-11-|
|-55555-55555-55-55-66666-66666-11-11-11-11-|

Chorus 3 ( 2:39 - 3:38 )
|--------------|--------------|
|--------------|--------------|
|--------------|--------------|
|-3----8----11-|-3----11----8-|
|-3----8----11-|-3----11----8-|
|-3----8----11-|-3----11----8-|

Outro ( 3:38 - 4:07 )
|-6h8-6-8----9-9p8-8p6-6p4-6h8-8-6-|-11-11p9-9p8-6p4-6h8-6-8-|
|----------------------------------|-------------------------|
|----------------------------------|-------------------------|
|----------------------------------|-------------------------|
|----------------------------------|-------------------------|
|----------------------------------|-------------------------|

Outro ( Continued )
|-6-6p4-4p3-3--3h4-3h4-|-4-3------------|
|----------------------|-----4----------|
|----------------------|----------3/5-3-|
|----------------------|----------------|
|----------------------|----------------|
|----------------------|----------------|

I hope you like the tab. By all means make it your own and revise it
because I know parts are missing. ~ zeptallica06.
Tap to rate this tab
 
# A B C D E F G H I J K L M N O P Q R S T U V W X Y Z