Song name
# A B C D E F G H I J K L M N O P Q R S T U V W X Y Z

Hurt - Incomplete House Carpenter tab

cover first four strings(high E to D) on 12,13,14 play those four for first intro
cover 11 on last three(low Eto D)play for second intro
Cover Eand A on 19 for verse
intro1
[-------14---14---14--14---13---12---14]
[-------14---14---14--14---13---12---14]
[-------14---14---14--14---13---12---14]
[-------14---14---14--14---13---12---14]
{--------------------------------------]
[--------------------------------------]
intro 2 minus the solo
[--------------------------------------]
[--------------------------------------]
[--------------------------------------]
[--------------------------------------]
[----11---11---11---11---11---11---11--]
[----11---11---11---11---11---11---11--]
verse 1
[--------------------------------------]
[--------------------------------------]
[--------------------------------------]
[--------------------------------------]
[------------19---------19---------20--]
[---19-19-19---19-19-19---20-20-20-----]
Tap to rate this tab
# A B C D E F G H I J K L M N O P Q R S T U V W X Y Z