Hurt - Ubleed tab

This song is kinda complicated because they don't play much of the same thing more than 
few times. The verses are all different from eachother and so on, but the chorus stays 
same throughout the whole song.
good luck

eb(--------------------------------)
bb(----3--------------3---0--------)
gb(----2-4---4h6-6b---2-4---4h6-6b-)
db(--0--------------0--------------)
ab(--0--------------0--------------)
Db(--0-----0--------0--------------)

eb(---------------------------------)
bb(----3---0----------3---0---------)
gb(----2-4---4h6-6b---2-4---4h6-----)
db(--0--------------0---------------)
ab(--0--------------0---------------)
Db(--0--------------0-----------2h4-)

x7
eb(--------------------------)
bb(--------------------------)
gb(--------7-----4-------4h6-)
db(------7-------------0-----)
ab(----5-------5-----0-------)
Db(--0-------0-----0---------)
   pm. . . . . . . . . . . .

eb(-------------)
bb(-------------)
gb(--7--4--7--4-)
db(--7--4--7--4-)
ab(--5--2--5--2-)
Db(--0-----0----)

eb(--------------------------)
bb(--------------------------)
gb(--------------------------)
db(------2-----2-----2-0-0h2-)
ab(----2-----2-----2---------)
Db(--2-----2-----2-----------)

eb(--------------------------)
bb(--------------------------)
gb(--------------------------)
db(------2-----2-----5-0-0h2-)
ab(----2-----2-----2---------)
Db(--2-----2-----2-----------)

eb(--------------------------)
bb(--------------------------)
gb(--------------------------)
db(------2-----2-----2-0-0h2-)
ab(----2-----2-----2---------)
Db(--2-----2-----2-----------)

eb(--------------------------)
bb(--------------------------)
gb(--------------------------)
db(------2-----2-----5-0-0h2-)
ab(----2-----2-----2---------)
Db(--2-----2-----2-----------)

eb(---------------------------------)
bb(---------------------------------)
gb(---------------------------------)
db(--222244444455442254442244554422-)
ab(--000000000000000000000000000000-)
Db(--000000000000000000000000000000-)

eb(------9/10-9--10--9/10-9-)
bb(-------------------------)
gb(-----------6------6/7--6-)
db(--4-5---------0----------)
ab(--------------0----------)
Db(--------------0----------)

the ones with () are hamonics
eb(--10--9/10-9------10--9/10-------)
bb(--------------10--------------10-)
gb(---7--6/7--6----------6/7-(7)----)
db(------------------0-------(5)----)
ab(------------------0-------(5)----)
Db(------------------0-------(5)----)

x2
eb(---------------------------------)
bb(---------------------------------)
gb(---------------------------------)
db(--222244444455442254442244554422-)
ab(--000000000000000000000000000000-)
Db(--000000000000000000000000000000-)

chorus  x4
eb(------------------)
bb(------------------)
gb(--7-7-7-7-4-4-4-4-)
db(--7-7-7-7-4-4-4-4-)
ab(--5-5-5-5-2-2-2-2-)
Db(--0-0-0-0---------)

x8
eb(-------------------)
bb(-------------------)
gb(-------------------)
db(--0000000000000000-)
ab(--0000000000000000-)
Db(--0000000000000000-)
   pm................

x2
eb(----------------)
bb(----------------)
gb(----------------)
db(--22-22-22-22-5-)
ab(--22-22-22-22-5-)
Db(--22-22-22-22-5-)

eb(---------------------------------)
bb(---------------------------------)
gb(---------------------------------)
db(--222244444455442254442244554422-)
ab(--000000000000000000000000000000-)
Db(--000000000000000000000000000000-)

chorus  x6
eb(------------------)
bb(------------------)
gb(--7-7-7-7-4-4-4-4-)
db(--7-7-7-7-4-4-4-4-)
ab(--5-5-5-5-2-2-2-2-)
Db(--0-0-0-0---------)

chorus continued  x2
eb(------------------)
bb(------------------)
gb(--7-7-7-7-4-4-4-4-)
db(--7-7-7-7-4-4-4-4-)
ab(--5-5-5-5-2-2-2-2-)
Db(--0-0-0-0---------)
   pm. . . . . . . .

chorus  x4
eb(------------------)
bb(------------------)
gb(--7-7-7-7-4-4-4-4-)
db(--7-7-7-7-4-4-4-4-)
ab(--5-5-5-5-2-2-2-2-)
Db(--0-0-0-0---------)

last chords
eb(-----------------)
bb(-----------------)
gb(----7-4----------)
db(--0-7-4----------)
ab(--0-5-2---222222-)
Db(--0--------------)
those last few notes are picked very lightly
Tap to rate this tab
 
# A B C D E F G H I J K L M N O P Q R S T U V W X Y Z