Song name
# A B C D E F G H I J K L M N O P Q R S T U V W X Y Z

Hurt - Losing tab

Band : Hurt
Song : Losing
Album : Vol. 1
Tuning : A# F A# D# G C

This is a pretty power and overlooked Hurt song. Believe me, this song
is in A# F A# D# G C Tuning. I tried tabbing this song in DADGBe Tuning
but it didn't work. The open chord used in the last line of the last 
chorus is so low that it's physically impossible to get that low in 
DADGBe Tuning. The only alternative would be to use a higher octave to 
compensate for the open chord some how if you wanted to play the song in 
DADGBe Tuning. Either way, this tab is in A# Tuning and seems to sound 
dead-on with J. Loren & Paul Spatola's guitar tones. Enjoy !!!!


Intro/Verse 1 ( Fingerpick these chords ) ( 0:00 - 1:01 )
|---------------|
|---------------|
|-------------7-|
|-12----12----5-|
|-12----8-----5-|
|-12----8-----5-|

Chorus 1 ( 1:01 - 1:20 )
|---------------------------------------------------------|
|---------------------------------------------------------|
|---------------------------------------------------------|
|-10h12-12-12-12-12--10h12-12-12-12-12--10h12-12-12-12-12-|
|-10h12-12-12-12-12--10h12-12-12-12-12--10h12-12-12-12-12-|
|-10h12-12-12-12-12--10h12-12-12-12-12--10h12-12-12-12-12-|

|-------------------------------------------------|
|-------------------------------------------------|
|-------------------------------------------------|
|-10h12-12-12-12-12--8-8888-8-8888--5-5555-5-5555-|
|-10h12-12-12-12-12--8-8888-8-8888--5-5555-5-5555-|
|-10h12-12-12-12-12--8-8888-8-8888--5-5555-5-5555-|

|---------------------------------------------------------|
|---------------------------------------------------------|
|---------------------------------------------------------|
|-10h12-12-12-12-12--10h12-12-12-12-12--10h12-12-12-12-12-|
|-10h12-12-12-12-12--10h12-12-12-12-12--10h12-12-12-12-12-|
|-10h12-12-12-12-12--10h12-12-12-12-12--10h12-12-12-12-12-|

|-----------------------------------|
|-----------------------------------|
|-----------------------------------|
|-10h12-12-12-12-12--8-888-8-8-8--5-|
|-10h12-12-12-12-12--8-888-8-8-8--5-|
|-10h12-12-12-12-12--8-888-8-8-8--5-|

Verse 2 ( Fingerpick these chords ) ( 1:20 - 1:57 )
|---------------|
|---------------|
|-------------7-|
|-12----12----5-|
|-12----8-----5-|
|-12----8-----5-|

Pre-Chorus ( 1:57 - 2:09 )
|----------------------------------------------------------|
|----------13----------13----------------13----------13----|
|----14-------14----------14-------14-------14----------14-|
|-12----12----------12----------12----12----------12-------|
|----------------------------------------------------------|
|----------------------------------------------------------|

|----------------------------------------------------|
|----------13----------13----------------13----------|
|----14-------14----------14-------14-------14-------|
|-12----12----------12----------12----12----------12-|
|----------------------------------------------------|
|----------------------------------------------------|

Chorus 2 ( 2:09 - 2:45 )
|---------------------------------------------------------|
|---------------------------------------------------------|
|---------------------------------------------------------|
|-10h12-12-12-12-12--10h12-12-12-12-12--10h12-12-12-12-12-|
|-10h12-12-12-12-12--10h12-12-12-12-12--10h12-12-12-12-12-|
|-10h12-12-12-12-12--10h12-12-12-12-12--10h12-12-12-12-12-|

|-------------------------------------------------|
|-------------------------------------------------|
|-------------------------------------------------|
|-10h12-12-12-12-12--8-8888-8-8888--5-5555-5-5555-|
|-10h12-12-12-12-12--8-8888-8-8888--5-5555-5-5555-|
|-10h12-12-12-12-12--8-8888-8-8888--5-5555-5-5555-|

|---------------------------------------------------------|
|---------------------------------------------------------|
|---------------------------------------------------------|
|-10h12-12-12-12-12--10h12-12-12-12-12--10h12-12-12-12-12-|
|-10h12-12-12-12-12--10h12-12-12-12-12--10h12-12-12-12-12-|
|-10h12-12-12-12-12--10h12-12-12-12-12--10h12-12-12-12-12-|

|-------------------------------------------------|
|-------------------------------------------------|
|-------------------------------------------------|
|-10h12-12-12-12-12--8-8888-8-8888--5-5555-5-5555-|
|-10h12-12-12-12-12--8-8888-8-8888--5-5555-5-5555-|
|-10h12-12-12-12-12--8-8888-8-8888--5-5555-5-5555-|

|---------------------------------------------------------|
|---------------------------------------------------------|
|---------------------------------------------------------|
|-10h12-12-12-12-12--10h12-12-12-12-12--10h12-12-12-12-12-|
|-10h12-12-12-12-12--10h12-12-12-12-12--10h12-12-12-12-12-|
|-10h12-12-12-12-12--10h12-12-12-12-12--10h12-12-12-12-12-|

|-------------------------------------------------|
|-------------------------------------------------|
|-------------------------------------------------|
|-10h12-12-12-12-12--8-8888-8-8888--5-5555-5-5555-|
|-10h12-12-12-12-12--8-8888-8-8888--5-5555-5-5555-|
|-10h12-12-12-12-12--8-8888-8-8888--5-5555-5-5555-|

|---------------------------------------------------------|
|---------------------------------------------------------|
|---------------------------------------------------------|
|-10h12-12-12-12-12--10h12-12-12-12-12--10h12-12-12-12-12-|
|-10h12-12-12-12-12--10h12-12-12-12-12--10h12-12-12-12-12-|
|-10h12-12-12-12-12--10h12-12-12-12-12--10h12-12-12-12-12-|

|-----------------------------------|
|-----------------------------------|
|-----------------------------------|
|-10h12-12-12-12-12--8-888-8-8-8--5-|
|-10h12-12-12-12-12--8-888-8-8-8--5-|
|-10h12-12-12-12-12--8-888-8-8-8--5-|

Break ( Fingerpick these chords ) ( 2:45 - 3:04 )
|-------------|
|-------------|
|-------------|
|-3----3----8-|
|-3----3----8-|
|-3----2----8-|

Bridge ( 3:04 - 3:22 )
|-------------------------------------------------------------------------|
|-------------------------------------------------------------------------|
|-10-10101010--10-10101010--9-9999--12-12121212--10-10101010--10-10101010-|
|-------------------------------------------------------------------------|
|-8--8-8-8-8---8--8-8-8-8---7-7777--10-10101010--8--8-8-8-8---8--8-8-8-8--|
|-------------------------------------------------------------------------|

|----------------------------------------------------------------------|
|----------------------------------------------------------------------|
|-7-7777-7--10--12--12/17--xxxx--12/15--xxxx--12/14--xxxx--10/12--1212-|
|--------------------------xxxx---------xxxx---------xxxx--------------|
|-5-5555-5--8---10--10/15--xxxx--10/13--xxxx--10/12--xxxx--8-/10--1010-|
|----------------------------------------------------------------------|

|--------------------------------|
|--------------------------------|
|--------------------------------|
|-8-8-8-8-8-8--10-10-10-10-10-10-|
|-8-8-8-8-8-8--10-10-10-10-10-10-|
|-8-8-8-8-8-8--10-10-10-10-10-10-|

Pre-Chorus/Break/Extended Bridge ( 3:22 - 3:40 )
|----------------------------------------------------------|
|----------13-------------13-------------13-------------13-|
|----14-------14-------14----------14-------14-------14----|
|-12----12----------12----------12----12----------12-------|
|----------------------------------------------------------|
|----------------------------------------------------------|

|----------------------------------------------------------|
|----------13-------------13-------------13-------------13-|
|----14-------14-------14----------14-------14-------14----|
|-12----12----------12----------12----12----------12-------|
|----------------------------------------------------------|
|----------------------------------------------------------|

|----------------------------------------------------------|
|----------13-------------13-------------13-------------13-|
|----14-------14-------14----------14-------14-------14----|
|-12----12----------12----------12----12----------12-------|
|----------------------------------------------------------|
|----------------------------------------------------------|

|----------------------------------------------------------|
|----------13-------------13-------------13-------------13-|
|----14-------14-------14----------14-------14-------14----|
|-12----12----------12----------12----12----------12-------|
|----------------------------------------------------------|
|----------------------------------------------------------|

Pre-Chorus/Break/Extended Bridge ( Strummed ) ( 3:40 - 3:57 )
|----------------------|
|-13----13----13----13-|
|-14----14----14----12-|
|-12----12----15----12-|
|----------------------|
|----------------------|


Chorus 3 ( 3:57 - 4:32 )
|---------------------------------------------------------|
|---------------------------------------------------------|
|---------------------------------------------------------|
|-10h12-12-12-12-12--10h12-12-12-12-12--10h12-12-12-12-12-|
|-10h12-12-12-12-12--10h12-12-12-12-12--10h12-12-12-12-12-|
|-10h12-12-12-12-12--10h12-12-12-12-12--10h12-12-12-12-12-|

|-------------------------------------------------|
|-------------------------------------------------|
|-------------------------------------------------|
|-10h12-12-12-12-12--8-8888-8-8888--5-5555-5-5555-|
|-10h12-12-12-12-12--8-8888-8-8888--5-5555-5-5555-|
|-10h12-12-12-12-12--8-8888-8-8888--5-5555-5-5555-|

|---------------------------------------------------------|
|---------------------------------------------------------|
|---------------------------------------------------------|
|-10h12-12-12-12-12--10h12-12-12-12-12--10h12-12-12-12-12-|
|-10h12-12-12-12-12--10h12-12-12-12-12--10h12-12-12-12-12-|
|-10h12-12-12-12-12--10h12-12-12-12-12--10h12-12-12-12-12-|

|-------------------------------------------------|
|-------------------------------------------------|
|-------------------------------------------------|
|-10h12-12-12-12-12--8-8888-8-8888--5-5555-5-5555-|
|-10h12-12-12-12-12--8-8888-8-8888--5-5555-5-5555-|
|-10h12-12-12-12-12--8-8888-8-8888--5-5555-5-5555-|

|---------------------------------------------------------|
|---------------------------------------------------------|
|---------------------------------------------------------|
|-10h12-12-12-12-12--10h12-12-12-12-12--10h12-12-12-12-12-|
|-10h12-12-12-12-12--10h12-12-12-12-12--10h12-12-12-12-12-|
|-10h12-12-12-12-12--10h12-12-12-12-12--10h12-12-12-12-12-|

|-------------------------------------------------|
|-------------------------------------------------|
|-------------------------------------------------|
|-10h12-12-12-12-12--8-8888-8-8888--5-5555-5-5555-|
|-10h12-12-12-12-12--8-8888-8-8888--5-5555-5-5555-|
|-10h12-12-12-12-12--8-8888-8-8888--5-5555-5-5555-|

|-------------------------------------------------------|
|-------------------------------------------------------|
|-------------------------------------------------------|
|-777777-555555-444444-000000-333333333333-555555555555-|
|-777777-555555-444444-000000-333333333333-555555555555-|
|-777777-555555-444444-000000-333333333333-555555555555-|

Outro ( Fingerpick these chords ) ( 4:32 - 5:08 )
|-------------|
|-------------|
|-------------|
|-3----3----8-|
|-3----3----8-|
|-3----2----8-|


I wasn't 100% sure on the Break at ( 2:45 - 3:04 ) and the Outro at 
( 4:32 - 5:08 ). If anyone figures it out by all means post the correct
way if it doesn't sound 100% right to you either. I tried my best with 
this tab for what I could hear by ear. Let me know if it sounds alright. 
I'll try to tab some more Hurt tabs soon. There seems to be a major lack 
of Hurt tabs and a semi-demand for them. ~ zeptallica06
Tap to rate this tab
# A B C D E F G H I J K L M N O P Q R S T U V W X Y Z