Song name
# A B C D E F G H I J K L M N O P Q R S T U V W X Y Z

Hurts - Miracle tab

Here is the lead I know

Intro lead/ repeating Pre-verse riff
E---10---10-10-8---------------------------------------|
B---------------10--8--10-8-6-3------------------------|
G------------------------------------------------------|
D------------------------------------------------------|
A------------------------------------------------------|
E------------------------------------------------------|

Chorus lead
E-------------------------------------------------------------------------| v hammerons/picking
B-----11-10-----11-10-----11-10---8--8--8/6/8--6/8/10/8--8/6/8--6/8/10/8--|
G--7---------7---------7--------------------------------------------------|
D-------------------------------------------------------------------------|
A-------------------------------------------------------------------------|
E-------------------------------------------------------------------------|

Lead chorus solo with slight variation
E------------------------------------------------------------------------------|v hammerons/picking
B-----11-10-----11-10-----11-10---8--8--8/6/8--6/8/10/8--8/6/8--6/5-5-5/6/5>3--|
G--7---------7---------7-------------------------------------------------------|
D------------------------------------------------------------------------------|
A------------------------------------------------------------------------------|
E------------------------------------------------------------------------------|
Tap to rate this tab
# A B C D E F G H I J K L M N O P Q R S T U V W X Y Z