Song name
# A B C D E F G H I J K L M N O P Q R S T U V W X Y Z

Hush Puppies - Youre Gonna Say Yeah tab

Help us improve GuitareTab! Take a short survey!
Ojala y les siva esta tablatura ya que no estoy 100% seguro de las notas

Despues del Intro con el bajo

e|-----------------------------------------|X2
B|-----------------------------------------|
G|----7-7-----1010----14-14-----14-14------|
D|----7-7-----1010----14-14-----14-14------|
A|----5-5-----8-8-----12-12-----12-12------|
D|-----------------------------------------|

Verso
e|-----------------------------------------------------|X4
B|-----------------------------------------------------|
G|----7-7-777x1010101010x14-14-141414141414-141414-----|
D|----7-7-777x1010101010x14-14-141414141414-141414-----|
A|----5-5-555x8-8-8 8 8 x12-12-121212121212-121212-----|
D|-----------------------------------------------------|

Pre-coro
e|------------------------------------------|X2
B|------------------------------------------|
G|----7-77-777101010101010------------------|
D|----7-77-7771010101010107-77-7777-77------|
A|----5-55-5558-8 8-8 8 8 7-77-7777-77------|
D|------------------------5-55-5555-55------|

Coro
e|-------------------------------------------------------|X2
B|-------------------------------------------------------|
G|----7-7-77710101010101012-1212-12121214-1414-141414----|
D|----7-7-77710101010101012-1212-12121214-1414-141414----|
A|----5-5-5558-8 8-8 8 8 10-1010-10101012-1212-121212----|
D|-------------------------------------------------------|

Verso X2
Pre-coro X2
Coro X2
Intro X1
Verso X2
Pre-coro X2
Coro X3
Verso X3
Coro X3

e|-------|
B|-------|
G|--7~---|
D|--7~---|
A|--5~---|
D|-------|



Related for Youre Gonna Say Yeah tab