Song name
# A B C D E F G H I J K L M N O P Q R S T U V W X Y Z

Hush - Fired Up tab

-------------------------------------------------------------------------------
			     Fired Up - Hush
			    (NFSMW Soundtrack)
-------------------------------------------------------------------------------
Tabbed by: BackSummer
First submitted tab, feel free to flame me,
Email: Jack.Rocky20@yahoo.de

Tuning: Standard


Intro:
e|---------------------------------------------------------------------------|
B|---------------------------------------------------------------------------|
G|---------------------------------------------------------------------------|
D|---------------------------------------------------------------------------|
A|----4---7-6-6-6-6p4---7-6-6-6-6h7---7-6-6-6-6p4---7-6-6-6-6h7--------------|
E|---------------------------------------------------------------------------|
Verse:
e|---------------------------------------------------------------------------|
B|---------------------------------------------------------------------------|
G|---------------------------------------------------------------------------|
D|---------6--------------------6---------------------6----------------------|
A|---4-4-4---7-6-6-6-6p4--4-4-4----7-6-6-6-6h7--4-4-4----7-6-6-6-6p4---------|
E|---------------------------------------------------------------------------|
The next bend is tricky for begginers, bend the string before hitting it, 
make it sound 2 semitones higher, then release.
If you cant, just hit 4'th fret on D string.
e|---------------------------------------------------------------------------|
B|---------------------------------------------------------------------------|
G|---------------------------------------------------------------------------|
D|---------6-----------------------6---------------------6----------------------|
A|---4-4-4---7-6-6-6-pb7pbr7--4-4-4----7-6-6-6-6p4--4-4-4----7-6-6-6-6h7---------|
E|---------------------------------------------------------------------------|

e|---------------------------------------------------------------------------|
B|---------------------------------------------------------------------------|
G|---------------------------------------------------------------------------|
D|---------6--------------4-4-4-4-4-6-6-6-7\6--------------------------------|
A|---4-4-4---7-6-6-6-6p4-----------------------------------------------------|
E|---------------------------------------------------------------------------|

The song keeps on like this. Just repeat Verse a few times.


Ending:
e|---------------------------------------------------------------------------|
B|---------------------------------------------------------------------------|
G|---------------------------------------------------------------------------|
D|---------------------------------------------------------------------------|
A|----4---7-6-6-6-6p4---7-6-6-6-6p4---7-6-6-6-6p4---7-6-6-6-6h7--------------|
E|---------------------------------------------------------------------------|

e|---------------------------------------------------------------------------|
B|---------------------------------------------------------------------------|
G|---------------------------------------------------------------------------|
D|-------------------------------------------------4--7\6--------------------|
A|-------7-6-6-6-6p4---7-6-6-6-6p4---7-6-6-6-6p4-----------------------------|
E|---------------------------------------------------------------------------|
************************************

| \   slide down
| h   hammer-on
| p   pull-off
| pb  Pre-bend
| pbr Pre-bend release

************************************
Tap to rate this tab
 
# A B C D E F G H I J K L M N O P Q R S T U V W X Y Z