Song name
# A B C D E F G H I J K L M N O P Q R S T U V W X Y Z

Husky - Historys Door tab

Standard Tuning.

It seems like the guitar is plucked up until the first solo part,
then afterwards is strummed (the chords for which can be found
in the other tab for History's Door...)

Enjoy :)


INTRO
E --------------------0---------------------------------------------- |
B ---3-------2-----------------3--------3--------2-----------------0- |
G ----0--------0--------0--------0--------0--------0------2-0-------- |
D ------------------------------------------------------------------- |
A ------------------------------------------------------------------- |
E 3--3--3-3--3---3-3--3---3-3--3---3-3--3---3-3--3---3-3--3---3-3--3- |

VERSE - heavily syncopated

E -------------------------------------------------------------------------------- |
B -2---------2---------3---------3---------3---------3---------3---------3-------- |
G ---0---------0---------0---------0---------0---------0---------0---------0------ | x3
D -------------------------------------------------------------------------------- |
A -------------------------------------------------------------------------------- |
E -3---3-3---3---3-3---3---3-3---3---3-3---3---3-3---3---3-3---3---3-3---3---3-3-- |

E -------------------------------------------------------------------------------- |
B -2---------2---------3---------3---------2---------2---------3---------3-------- |
G ---0---------0---------0---------0---------0---------0---------0---------0------ |
D -------------------------------------------------------------------------------- |
A -------------------------------------------------------------------------------- |
E -3---3-3---3---3-3---3---3-3---3---3-3---3---3-3---3---3-3---3---3-3---3---3-3-- |

E -------------------------------------------------------------------------------- |
B -2---------2---------3---------3---------4---------4---------4---------4-------- |
G ---0---------0---------0---------0---------0---------0---------0---------0------ |
D -------------------------------------------------------------------------------- |
A -------------------------------------------------------------------------------- |
E -3---3-3---3---3-3---3---3-3---3---3-3---3---3-3---3---3-3---3---3-3---3---3-3-- |

SOLO

E 3--5-3--2--0----0-2-3-2-0--------- |
B ---------------3----------3-0-0-0- |
G ---------------------------------- |
D ---------------------------------- |
A ---------------------------------- |
E ---------------------------------- |
Tap to rate this tab
# A B C D E F G H I J K L M N O P Q R S T U V W X Y Z