Guitaretab - guitar tabs
Song name
# A B C D E F G H I J K L M N O P Q R S T U V W X Y Z
Home / H / Huver / Lower tab

Huver - Lower tab

Artist : Huver
Song: Lower

This is the great new song by Huver, a band out of Oklahoma
they're currently touring with Fuel, check it out

Verse (some distortion)
Eb|-------------------------------------------------------------|
Bb|-------------------------------------------------------------|
Gb|-------------------------------------------------------------|
Db|---5-0-5--------0-5-0-5-----0-5-0-5--------------------------|
Ab|---5-0-5--------0-5-0-5-----0-5-0-5--------------------------|
Db|---5-0-5--------0-5-0-5-----0-5-0-5--------------------------|
	   Falling...	  Over..

  ---------------------------------------------------------------|
  ---------------------------------------------------------------|
  ---------------------------------------------------------------|
  ----------0-5-0-5-0-8-0-8---0-1-0-1------0-1-0-1---------------|
  ----------0-5-0-5-0-8-0-8---0-1-0-1------0-1-0-1---------------|
  ----------0-5-0-5-0-8-0-8---0-1-0-1------0-1-0-1---------------|
   In the floor I get control...    I am...      sober...

  -------------------------------------------------------------|
  -------------------------------------------------------------|
  -------------------------------------------------------------|
  --0-1-0-1---------0-1-0-1-0-3-0-3-0-5-0-5---5-5--------------|
  --0-1-0-1---------0-1-0-1-0-3-0-3-0-5-0-5---5-5--------------|
  --0-1-0-1---------0-1-0-1-0-3-0-3-0-5-0-5---5-5--------------|
					      pm
	  Somehow.. I feel wasted though   Took this

  -----------------------------------------------------------------|
  -----------------------------------------------------------------|
  -----------------------------------------------------------------|
  -----5-0-5----5-5-----0-5-0-5----5-5------0-5-0-5-0-8-0--0-1-0-1-|
  -----5-0-5----5-5-----0-5-0-5----5-5------0-5-0-5-0-8-0--0-1-0-1-|
  -----5-0-5----5-5-----0-5-0-5----5-5------0-5-0-5-0-8-0--0-1-0-1-|
       	        pm		   pm
	     lower		thought back now Ive hit the ground
[ Tab from: http://www.guitaretab.com/h/huver/125747.html ]
  ---------------------------------------------------------------|
  ---------------------------------------------------------------|
  ---------------------------------------------------------------|
  -------0-1-0-1-------0-1-0-1--------0-1-0-1-0-3-0-3------------|
  -------0-1-0-1-------0-1-0-1--------0-1-0-1-0-3-0-3------------|
  -------0-1-0-1-------0-1-0-1--------0-1-0-1-0-3-0-3------------|
   I am		nowhere	      In this bed i fell


Chorus: (heavy distortion) x2
----------------------------------------------------------------------|
----------------------------------------------------------------------|
----------------------------------------------------------------------|
-5-0-5--5-0-5------8-0-8--8-0-8------1-0-1--1-0-1------3-0-3---3-0-3--|
-5-0-5--5-0-5------8-0-8--8-0-8------1-0-1--1-0-1------3-0-3---3-0-3--|
-5-0-5--5-0-5------8-0-8--8-0-8------1-0-1--1-0-1------3-0-3---3-0-3--|
Feel ... roadie    I dont... me      Now............................

	Feel like im  a roadie
	I dont even know me
	Now.....
	I would never take it
	I can only fake it
	Now...

Getting, colder
Somewhere I'll get understood
Things were, normal
Normal never looks so good
Becoming jaded
All the colors start to change
Somehow, operated
Just to stay on luxury

Chorus:
	Feel like im  a roadie
	I dont even know me
	Now...
	I would never take it
	I can only fake it
	Now...
	Feeling kindof lonely
	I would never know me
	Now...
	Now that I am breakin
	I can only fake it
	Now...

------------------------------------------------------------|
------------------------------------------------------------|
------------------------------------------------------------|
-1--1----1----1----1----1--3-3------------------------------|
-1--1----1----1----1----1--3-3------------------------------|
-1--1----1----1----1----1--3-3------------------------------|

		  I betcha know you're wrong x 4

Chorus

I'm a 14 year old music/guitar fan from Dallas, Tx
I've teaching myself guitar for a year so feel free
to post up any corrections
http://www.kdge.com/main.html
Lower chords by Huver