Song name
# A B C D E F G H I J K L M N O P Q R S T U V W X Y Z

Hyde - Revolution tab

REVOLUTION - VAMPS (BEAST Album)
(Theres still no "VAMPS" band [vampsxxx.com] on "Ultimate-Guitar" so I'm posting 
the tab on "HYDE")

Tune: Drop D
Distortion

Intro/Verses (5x):
e|-------------------------|
B|-------------------------|
G|-------------------------|
D|-4--4--2-4--7-4--2--4-4--|
A|-4--4--2-4--7-4--2--4-4--|
D|-4--4--2-4--7-4--2--4-4--|

Between the 2nd and 3rd time do some "natural harmonics".
Between the 3rd the 4th and the 5th time just let "4" ring.

Pre-Chorus:
e|----------------|
B|----------------|
G|----------------|
D|-4--4--2-4--4---|
A|-4--4--2-4--4---|
D|-4--4--2-4--4---|

Chorus (4x):
e|-----------------|
B|-----------------|
G|-------- (^7)----|
D|-4--2--9--7------|
A|-4--2--9--7------|
D|-4--2--9--7------|

-Repeat Intro/Verses-

-Repeat Chorus-

Bridge (8x):
e|----------------|
B|----------------|
G|----------------|
D|-4-4--4-4--4--4-|
A|-4-4--4-4--4--4-|
D|-4-4--4-4--4--4-|

-Repeat Intro/Verses-

-Repeat Chorus- 2x

-Repeat Intro/Verses-



Tab by: MARK
Tap to rate this tab
 
# A B C D E F G H I J K L M N O P Q R S T U V W X Y Z