Song name
# A B C D E F G H I J K L M N O P Q R S T U V W X Y Z

Hymnal - Amazing Grace tab

This is my first tablature, but (in my humble opinion) it's better than
a lot of tabs I've seen on the web and bought in the stores.


e--------------------------------------------|
B-------0--0--------------------0---0-----3--|
G---0----0-0---2-0----------0-----0-0---2-0--|
D-0-0------0-----2---2-0--0-0-------0---0-0--|
A----------------3---------------------------|
E---3------3-----------3----3-------3--------|


e-------------------------------------------|
B-0-3-0-------------------------0---0-------|
G-0-0-0-0--------0-0---------0----0-0--2-0--|
D-0-0-0-3---0-2------2-0---0-2------0--0-0--|
A-------------3--------------2--------------|
E----------------------3------------3----3--|
Tap to rate this tab
# A B C D E F G H I J K L M N O P Q R S T U V W X Y Z