Song name
# A B C D E F G H I J K L M N O P Q R S T U V W X Y Z

Hymnal - We Are All Enlisted tab

Simplified Version

E|-------------------------|---------------------|------------------------|
B|---1-3-1-----------------|--------1-------1-3--|--1-3-1-----------------|
G|-3-------3-2-0-------0---|----2-3-------3------|3-------3-2-0-------0---|
D|---------------3-3-0---3-|--3---------3--------|--------------3-3-0---3-|
A|-------------------------|---------------------|------------------------|
E|-------------------------|---------------------|------------------------|

E|------------------|----------------------------------------------------|
B|--------1---1-3---|-------1-1-1-----------------3-3-1---1-------1-1-1--|
G|--0-2-3---3-----3 |-2-2-3-------3-2-3---0-0-2-3-------3---2-2-3--------|
D|3-----------------|----------------------------------------------------|
A|------------------|----------------------------------------------------|
E|------------------|----------------------------------------------------|

E|-------------------------------------|---------------------------------|
B|--------3--1-------------------------|----1-3-1------------------------|
G|3-2-0--------3-2---3-2-0------2-0----|--3------3-2-0-------0-----------|
D|--------------------------3-3-----3-1|---------------3-3-0---3---------|
A|-------------------------------------|---------------------------------|
E|-------------------------------------|---------------------------------|

E|---------------------|-------------------------------------------------|
B|--------1-------1-3--|--1-3-1-------------------------1---1-3----------|
G|----2-3-------3------|3-------3-2-0-------0-----0-2-3---3-----3--------|
D|--3---------3--------|--------------3-3-0---3-3------------------------|
A|---------------------|-------------------------------------------------|
E|---------------------|-------------------------------------------------|
Tap to rate this tab
# A B C D E F G H I J K L M N O P Q R S T U V W X Y Z