Song name
# A B C D E F G H I J K L M N O P Q R S T U V W X Y Z

Hyper Act - Hanya Aku tab

Artist: Hyper Act
Ablum: OST Teduhan Kasih
Song: Hanya Aku

*Figured by your ears .. It's Easy .. Yeah Malaysia Boleh!! Haha

++++++++++++++++++++++++

 Guitar 1:
E|-----------------------------------|
B|--3/5-3~--6-5~---------------------|
G|---------------5-9-7--5p4h5-(5)~~--|
D|-----------------------------------|
A|-----------------------------------|
E|-----------------------------------|

E|-----------------------------------|
B|--3/5-3~--6-5~---------------------|
G|---------------5-9-7--5p4-4-(4)~~--|
D|-----------------------------------|
A|-----------------------------------|
E|-----------------------------------|

E|-------------------------------------15----------15----------15/17-15--(15)~~--|
B|--3/5-3~--6h5~-5p3---------/13h12p13----13h12p13----13h12p13-------------------|
G|--------------------5p4h5------------------------------------------------------|
D|-------------------------------------------------------------------------------|
A|-------------------------------------------------------------------------------|
E|-------------------------------------------------------------------------------|


++++++++++++++++++++++++

/  = Slide down
\  = Silde up
~  = Vibrato short duration
~~ = Vibrato long duration
h  = Hammer on
p  = Pull over
() = Normal note or Ghost note


++++++++++++++++++++++++
Tap to rate this tab
# A B C D E F G H I J K L M N O P Q R S T U V W X Y Z