Song name
# A B C D E F G H I J K L M N O P Q R S T U V W X Y Z

Hypernova - Billy tab

This is King Raam's song "Billy."  Enjoy.

This is ear-transcribed. You can download the song freely on King Raam's blog, or on soundcloud:  

http://www.kingraam.com/blog/2013/10/2/billy-said-the-system-was-corrupt

The song is made of two parts; each part is made of three chords.

Tabbed by: Sepehr R

        
   Billy said he's got it figured out again,  Billy said the system...
E|-------------------------------------------------------------------|
B|-------------------------------------------------------------------|
G|-7----------------7--------------7--x2-----------------------------|
A|-4----------------7--------------5--x2-----------------------------|
E|-5----------------5--------------5--x2-----------------------------|

And this is the outro:

   Billy why you hiding behind the glass, Billy why you hiding from the past


e|-----------------------------------------------------------------|
B|--2--------------------------------------------------------------|
G|--2---------------1--------------1---x2--------------------------|
D|--2---------------0--------------2---x2--------------------------|
A|--0---------------2--------------2---x2--------------------------|
E|------------------0--------------0-- x2--------------------------|
Tap to rate this tab
# A B C D E F G H I J K L M N O P Q R S T U V W X Y Z