Song name
# A B C D E F G H I J K L M N O P Q R S T U V W X Y Z

Hypnogaja - They Dont Care tab

Hi everybody, since nobody has tabbed it yet, I decided to make a try; not the best tab 
but is always a beginning...

------------------------------------|----------------------------------|
------------------------------------|----------------------------------|
------------------------------------|----------------------------------|
-----4-----0-----4-----0------------|-----5-----0-----5-----0----------|
--2-----2-----2-----2-----2--2------|--2-----2-----2-----2-----2--2----|
------------------------------------|----------------------------------|

------------------------------------|----------------------------------|
------------------------------------|----------------------------------|
------------------------------------|----------------------------------|
-----4-----0-----4-----0-----4------|--4-4---4-4--2-2---2-2------------|
--2-----2-----2-----2-----2--2------|--2-2---2-2--2-2---2-2--2---------|
------------------------------------|----------------------------------|

...and that's it. Very poor tab, hope it helps anyway
Tap to rate this tab
 
# A B C D E F G H I J K L M N O P Q R S T U V W X Y Z