Song name
# A B C D E F G H I J K L M N O P Q R S T U V W X Y Z

Hypnogaja - Here Comes The Rain Again tab

e-------------3--------------------------------------|
b--------4-------4-------3h4p3-----------------------|
g---5---5------------5--------------5----------------|
d---5---5--------------------------------------------|
a---3------------------------------------------------|
e----------------------------------------------------|

e----------------------------------------------------|
b----------------------------------------------------|
g-----------------------------5----------------------|
d----6---8--8-8-x---6----6---------------------------|
a----6---6--6-6-x---6----6---------------------------|
e----4---4--4-4-x---4--------------------------------|

e------------------------------------------------------|
b------4-4-x--3----------------------------------------|
g--3--3-3-x--3-----------------------------------------|
d--3--3-3-x--3-----------------------------------------|
a--1-----------1---------------------------------------|
e------------------------------------------------------|

e-----------------3---------------------------------------|
b--------4------------4-----------------------------------|
g---5--------5------------5-------------------------------|
d---5---------------------------5-------------------------|
a---3-----------------------------------------------------|
e---------------------------------------------------------|

If u have question, talk it to me ;)
facebook.com/kenijey
Tap to rate this tab
 
# A B C D E F G H I J K L M N O P Q R S T U V W X Y Z