Song name
# A B C D E F G H I J K L M N O P Q R S T U V W X Y Z

Hypocrisy - Slippin Away tab

Hypocrisy - Slippin' away
___________________________

From the album Abducted 1996

Tunning - 1 step down

E=D
A=G
D=C
G=F
B=A
e=d

Note: Lyrics may not be very right.

Clean guitar
Intro & verse:
|-0--0---------------0-----------------3---------------3---------|
|-0--0---------------0-----------------3---------------3---------|
|-0--0---------------0-----------------4---------------4---------| listen to the song
|-2--------2--2---2-----2--2---x-x--5--------5--5---5-----5--5---| for better
|-2--------2--2---2-----2--2---x-x--5--------5--5---5-----5--5---| interpretation
|-0--------0--0---0-----0--0---x-x--3--------3--3---3-----3--3---|

"So I'll choose it from death"                  "Memories been bless this one day"
Guitar 1 (clean)
|-5--5--5--5...------------------------------5--5--5--5...-------------------|
|-5--5--5--5...------------------------------5--5--5--5...-------------------|
|-5--5--5--5...------------------------------5--5--5--5...-------------------|
|-7--7--7--7...------------------------------7--7--7--7...-------------------|
|-7--7--7--7...------------------------------8--8--8--8...-------------------|
|----------------------------------------------------------------------------|
|
|guitar 2 (use a little bend)
|----------------------------------------------------------------------------|
|-----------10~~---12~~--13~~----12~~--------10~~---12~~--13~~--17~~--15~~---|
|----------------------------------------------------------------------------|
|----------------------------------------------------------------------------|
|----------------------------------------------------------------------------|
|----------------------------------------------------------------------------|

"Take the tears and the pain"                   "My soul I sold to prolong"
 -5--5--5--5...------------------------------5--5--5--5...-------------------|
 -5--5--5--5...------------------------------5--5--5--5...-------------------|
 -5--5--5--5...------------------------------5--5--5--5...-------------------|
 -7--7--7--7...------------------------------7--7--7--7...-------------------|
 -7--7--7--7...------------------------------8--8--8--8...-------------------|
 ----------------------------------------------------------------------------|
                                                                             |
 ----------------------------------------------------------------------------|
 -10~~---12~~--15~~--13~~----12~~------------10~~---12~~--13~~--17~~--15~~---|
 ----------------------------------------------------------------------------|
 ----------------------------------------------------------------------------|
 ----------------------------------------------------------------------------|
 ----------------------------------------------------------------------------|
 ----------------------------------------------------------------------------|

Pre-chorus fill:
"Don't tell me"           "I'm dying"
guitar 1 (clean)
|-0--0--0--0--0--0--0--0--0--0--0--0--0--0--0--0--|
|-1--1--1--1--1--1--1--1--0--0--0--0--0--0--0--0--|
|-2--2--2--2--2--2--2--2--2--2--2--2--2--2--2--2--|
|-2--2--2--2--2--2--2--2--2--2--2--2--2--2--2--2--|
|-0--0--0--0--0--0--0--0--0--0--0--0--0--0--0--0--|
|-------------------------------------------------|
|
|guitar2 (distorted)
|-------------------------------------------------|
|-------------------------------------------------|
|-2-----------------------2-----------------------|
|-2-----------------------2-----------------------|
|-0-----------------------0-----------------------|
|-------------------------------------------------|

Chorus:
Guitar1 (clean)
|-0--0--0--0-0--0--0--0--0-0--1--1--1--1-1--3--3--3--3-3--|
|-1--1--1--1-1--0--0--0--0-0--1--1--1--1-1--3--3--3--3-3--|
|-2--2--2--2-2--0--0--0--0-0--2--2--2--2-2--4--4--4--4-4--|
|-2--2--2--2-2--2--2--2--2-2--3--3--3--3-3--5--5--5--5-5--|
|-0--0--0--0-0--2--2--2--2-2--3--3--3--3-3--5--5--5--5-5--|
|---------------0--0--0--0-0--1--1--1--1-1--3--3--3--3-3--|
|
|guitar2 (distorted)
|---------------------------------------------------------|
|---------------------------------------------------------|
|-2-------------------------------------------------------|
|-2-------------2-------------3-------------5-------------|
|-0-------------2-------------3-------------5-------------|
|---------------0-------------1-------------3-------------|
|
|voice melody
|---------------------------------------------------------|
|---------------------------------------------------------|
|--------------------------------------4--5--4--4~~-------|
|-10--9--7--7~~------------5--7-7-7-7---------------------|
|------------------------7--------------------------------|
|---------------------------------------------------------|

 -0--0--0--0-0--0--0--0--0-0--1--1--1--1-1--0--0-0--2--2-2--|
 -1--1--1--1-1--0--0--0--0-0--1--1--1--1-1--1--1-1--3--3-3--|
 -2--2--2--2-2--0--0--0--0-0--2--2--2--2-2--0--0-0--4--4-4--|
 -2--2--2--2-2--2--2--2--2-2--3--3--3--3-3--2--2-2--4--4-4--|
 -0--0--0--0-0--2--2--2--2-2--3--3--3--3-3--3--3-3--2--2-2--|
 ---------------0--0--0--0-0--1--1--1--1-1------------------|
                                                            |
 -----------------------------------------------------------|           ---------|
 -----------------------------------------------------------|           ---------|
 -2-----------------------------------------5-------4-------| end with: ---------|
 -2-------------2-------------3-------------5-------4-------| and let   ---2-----|
 -0-------------2-------------3-------------3-------2-------|   ring    ---2-----|
 ---------------0-------------1-----------------------------|           ---0-----|
                                                            |
 -----------------------------------------------------------|
 -----------------------------------------------------------|
 ----------4--5--4~~----------------------------------------|
 -7-7---7---------------------5--7-7-7-7--5--7---7--5~~-----|
 --------------------------7--------------------------------|
 -----------------------------------------------------------|

Play intro & verse part.
Solo 1:
|------------------------------10b*(12)r10~~-------12p10-----------------------|
|------------8--10--12--10--8-----------------------------10h12p10--8h10p8~~---|
|-7h9~~------------------------------------------------------------------------|
|------------------------------------------------------------------------------|
|-------------------------------* slow bend------------------------------------|
|------------------------------------------------------------------------------|

 -----------------------------------------------------|
 -7--8--10--10/12~~---8h10p8~~--7---------------------|
 ---------------------------------7--7/9~~tr.bend(7)--|
 -----------------------------------------------------|
 -----------------------------------------------------|
 -----------------------------------------------------|

Play verse after first chorus.

then:
"Welcome To Hell"
|-5--5--5--5...---------------------------5--5--5--5...-------------------|
|-5--5--5--5...---------------------------5--5--5--5...-------------------|
|-5--5--5--5...---------------------------5--5--5--5...-------------------|
|-7--7--7--7...---------------------------7--7--7--7...-------------------|
|-7--7--7--7...---------------------------8--8--8--8...-------------------|
|-------------------------------------------------------------------------|
|
|guitar 2 (use a little bend)
|-------------------------------------------------------------------------|
|-------10~~---12~~--17~~--15~~----------10~~---12~~--13~~--17~~--15~~----|
|-------------------------------------------------------------------------|
|-------------------------------------------------------------------------|
|-------------------------------------------------------------------------|
|-------------------------------------------------------------------------|

 -5--5--5--5...------------------------------5--5--5--5...-------------------|
 -5--5--5--5...------------------------------5--5--5--5...-------------------|
 -5--5--5--5...------------------------------5--5--5--5...-------------------|
 -7--7--7--7...------------------------------7--7--7--7...-------------------|
 -7--7--7--7...------------------------------8--8--8--8...-------------------|
 ----------------------------------------------------------------------------|
                                                                             |
 -17~~--19~~--20~~--22~~--20~~----19~~---------------------------------------|
 -------------------------------------------10~~---12~~--13~~--17~~--15~~----|
 ----------------------------------------------------------------------------|
 ----------------------------------------------------------------------------|
 ----------------------------------------------------------------------------|
 ----------------------------------------------------------------------------|
 ----------------------------------------------------------------------------|

Play pre-chorus & chorus.

Guitar 3 plays chorus part.
Bridge: (guitar1) (guitar2 plays the same an octave lower)
|-----------------------------------------------------|
|-/10~~---12~~--13~~--15~~--13p12-13~~----12h13h12~~--|
|-----------------------------------------------------|
|-----------------------------------------------------|
|-----------------------------------------------------|
|-----------------------------------------------------|

 -----------------------------------------------------15--------------------|
 ---10~~---12~~--13~~--17~~--15p13-15~~---15b(17)r15-----15b(17)r15--13~~---|
 ---------------------------------------------------------------------------|
 ---------------------------------------------------------------------------|
 ---------------------------------------------------------------------------|
 ---------------------------------------------------------------------------|

Solo 2:
guitar3
|----------------------------------------------------22b*(24)r22~~---22b(24)r22-20-19------------|
|-12--13--15--13--12------------------------------------------------------------------20-22-22~~-|
|---------------------14--12~~---12/14-14~~------------------------------------------------------|
|------------------------------------------------------*slow bend--------------------------------|
|------------------------------------------------------------------------------------------------|
|------------------------------------------------------------------------------------------------|
|
|guitar1 (clean)
|------------------------------------------------------------------------------------------------|
|-6--6--6--6--8--8--8--8-10-10-10-10-12-12-12-12------6--6--6--6--8--8--8--8---------------------|
|-7--7--7--7--9--9--9--9-10-10-10-10-12-12-12-12------7--7--7--7--9--9--9--9---------------------|
|-7--7--7--7--9--9--9--9-10-10-10-10-12-12-12-12------7--7--7--7--9--9--9--9---------------------|
|-5--5--5--5--7--7--7--7--8--8--8--8-10-10-10-10------5--5--5--5--7--7--7--7---------------------|
|------------------------------------------------------------------------------------------------|
|
|guitar2 (distorted)
|------------------------------------------------------------------------------------------------|
|------------------------------------------------------------------------------------------------|
|-7-----------9----------10----------12---------------7-----------9------------------------------|
|-7-----------9----------10----------12---------------7-----------9------------------------------|
|-5-----------7-----------8----------10---------------5-----------7------------------------------|
|------------------------------------------------------------------------------------------------|

 -17--15-----------------------------------------------|
 ---------17--15---------------------------------------|
 -----------------17~~--16h17p16h17p16h17p16h17-14~~---|
 ------------------------------------------------------|
 ------------------------------------------------------|
 ------------------------------------------------------|
                                                       |
 ------------------------------------------------------|
 -10--10--10--10--12--12--12--12-----------------------|
 -10--10--10--10--12--12--12--12-----------------------|
 -10--10--10--10--12--12--12--12-----------------------|
 --8---8---8---8--10--10--10--10-----------------------|
 ------------------------------------------------------|
                                                       |
 ------------------------------------------------------|
 ------------------------------------------------------|
 -10--------------12-----------------------------------|
 -10--------------12-----------------------------------|
 --8--------------10-----------------------------------|
 ------------------------------------------------------|

corrections may needed.
Tap to rate this tab
# A B C D E F G H I J K L M N O P Q R S T U V W X Y Z